Oops, an error
Loading. Please wait.

Estoy Buscando Tab

100 views 1 this week
no commentswrite comment
1 2 3 4 5
3 more votes to show rating
add to favorites
launch autoscroll
font size
how to read this tab
guitar tuner
set tempo
Help us to improve Ultimate-Guitar.com Take our survey!
esta canción y la intro son con capo en el
5° traste y es así:

e: 7--8-10-13-12-12-12-12--7--8-10--------------|
B: 8-----------------------8-------8-10-10-10-10|
G: 7-5-5--5--5--5--5--5--5-7-5-5--5-5--5--5--5--|
D: 5-----------------------5--------------------|
A: 5-----------------------5--------------------|
E: 5-----------------------5--------------------|x2

e: 5---|
B: 10--|
G: 5---|
D: 5---|
A: 5---|
E: ----|

En la estrofa es así:

B: 13-12-10-10-8----------5-5--13-12-10-10-8------------5-5-5--
G: -------------6/7-10-9--------------------6/7-7-10-9---------
D: ----------------------5-5-5-------------------------5-5-5-5-

Y van los acordes de Am, G, C, Am, D, y se repite el punteo
hasta el coro.

Bueno mi Nombre Rudy Quete y espero que les sea de bendición
este punteo que les publique, Dios les bendiga.
Suggest correction
Give kudos to tab author, rate the tab!
1 2 3 4 5
print report bad tab
You may want to rate the tab now too:
select rating
Wanna post a correction for this tab? Suggest correction