Oops, an error
Loading. Please wait.

Todo Pertenece A Ti Tab

189 views 1 this week
no commentswrite comment
1 2 3 4 5
3 more votes to show rating
add to favorites
launch autoscroll
font size
0
reset
how to read this tab
guitar tuner
×
Best way to learn
"Todo Pertenece A Ti"
Autoscroll
slow
fast
+/-
esc
set tempo
stop
hola soy matias ariel medina de la iglesia bautista de tablada
subi esta tablatura del hermoso cd de marcos brunet hogar dulce hogar
bendisiones


intro;FA#m  [ch]E [ch]F#m [ch]B SI [ch]C# [ch]D FA#m  MI FA#m SI[/ch] SI[/ch] DO#[/ch] RE[/ch] MI[/ch]

 [ch]F#m               [ch]E                  FA#m[/ch]            SI[/ch]
-------------------------------------------------------------17-19-17---e
--17h19-17h19-17----------------------17h19-17h19-17-------19--------19-b
-----------------18-16----16h18-16-------------------18-16--------------g -
-----------------------19----------19----------------------------------d
------------------------------------------------------------------------a


[ch]B                                [ch]C#[/ch]  RE[/ch]
---------------------------------------------------------------e
--17h19-17h19-17--------------------------------------17-----------b
-----------------18-16----16h18-16--------------16-17---------------g -
-----------------------19----------19--16-17-18-----------------------------d
-----------------------------------------


[ch]F#m                [ch]E                 FA#m[/ch]            SI[/ch]
-------------------------------------------------------------17-19-17---e
--17h19-17h19-17----------------------17h19-17h19-17-------19--------19-b
-----------------18-16----16h18-16-------------------18-16--------------g -
-----------------------19----------19----------------------------------d
------------------------------------------------------------------------a


[ch]B                   [ch]C#            [ch]D[/ch]                MI[/ch]                FA#m[/ch]
---------------------------------------------------12-------12-14-17-14-17---e
--17h19-17h19-17----------------------------12--14---12--14------------------b
-----------------18-16----16h18-16----13-14------------------------g -
-----------------------19----------19--------------------------------d
-----------------------------------------

[ch]F#m[/ch]                      [ch]E/SOL#[/ch]
de mi papa es la tierra y su plenitud
    [ch]C#m               RE[/ch]
el mundo y todo lo que hay
[ch]F#m[/ch]                          [ch]E/SOL#[/ch]
y convertite la planta de mis pies
             [ch]C#m                 RE[/ch]
tu palabRa vivare y la tierra cambiara

 [ch]E/SOL#     FA#m[/ch]              [ch]D[/ch]
y me alegrare en tu ti prerencia
 [ch]E/SOL#  [ch]F#m[/ch]              [ch]D[/ch]     MI/SOL#[/ch]
y danzaAAAA re en tu precensia

               [ch]D  [ch]E/SOL#            FA#m[/ch]  MI/SOL#[/ch]
//todo pertenece a  ti,   todo pertenece a   ti
            [ch]D        [ch]E/SOL#        FA#m[/ch]   MI/SOL#[/ch]
ni nada  jamas se escapara de tu control //

[ch]D[/ch]
     [ch]E[/ch] papa
 [ch]D                  [ch]A[/ch]            [ch]E/SOL#[/ch]               SI[/ch]
 la tierra es tuya tambien es mia y yo  desfruto mi herencia todo el dia
[ch]D                  [ch]A[/ch]            [ch]E/SOL#[/ch]               SI[/ch]
 la tierra es tuya tambien es mia y yo me alegro en tu precensia todo el dia

[ch]D            [ch]A[/ch]            [ch]E/SOL#[/ch]        SI[/ch]
hoooooooo hoooooo hoooooh ohoooho hohoh hohoh

[ch]D            [ch]A[/ch]            MI/SOL#[/ch]
hoooooooo hoooooo hoooooh ohoooho hohoh hohoh

face matias ariel medinas

cooreo  matias_medinas@
Suggest correction
Give kudos to tab author, rate the tab!
1 2 3 4 5
comments
print report bad tab
guest
You may want to rate the tab now too:
select rating
Wanna post a correction for this tab? Suggest correction