Oops, an error
Loading. Please wait.

No Hay Otro Como Tu Bass

version 1
version 1

Whole song

14 views 1 this week
no commentswrite comment
1 2 3 4 5
3 more votes to show rating
add to favorites
launch autoscroll
font size
0
reset
guitar tuner
×
Best way to learn
"No Hay Otro Como Tu"
Autoscroll
slow
fast
+/-
esc
set tempo
stop
ACLARACIONES>>>>Ejemplo>>>>9(12)
9.-El numero que esta primero es la nota que se toca
(12).-El número que esta dentro del paréntesis es el número de veces que
se toca la nota
Lo utilice de esta manera para no hacer tan extenso el tab
La cancion esta en C#

-=INTRO=-
B-------------------
E-9(12)11(2)---6(8)-
A-----------8(2)----
D-------------------
G-------------------

B-----------------------------------------------------
E-----------------------------------------------------
A------------9(2)--9(2)6(2)9(2)--9(2)-----------------
D-9(2)8(2)6(2)--6(2)----------6(2)--6(2)8(2)9(8)11(8)-
G-----------------------------------------------------

B----------------------------------9(16)-
E-9(12)------8(12)------6(12)------------
A-----9(2)8(2)---9(2)8(2)---9(2)8(2)-----
D----------------------------------------
G----------------------------------------


-=VERSO=-
B----------7(16)9(16)--------7(16)9(16)--
E-9(16)6(16)--------9(16)6(16)-----------
A----------------------------------------
D----------------------------------------
G----------------------------------------


-=PRECORO=-
         Todos sabrán, confesaran...que...
B-4--44-4-4------7Â?77-7-7-----4(16)------
E---------------------------------4(16)--
A----------------------------------------
D----------------------------------------
G----------------------------------------


-=CORO=-(Es igual que el intro)
  
  B-------------------
  E-9(12)11(2)---6(8)-
  A-----------8(2)----
  D-------------------
  G-------------------
X2
  B-----------------------------------------------------
  E-----------------------------------------------------
  A------------9(2)--9(2)6(2)9(2)--9(2)-----------------
  D-9(2)8(2)6(2)--6(2)----------6(2)--6(2)8(2)9(8)11(8)-
  G-----------------------------------------------------
  
B----------------------------------9(16)-
E-9(12)------8(12)------6(12)------------
A-----9(2)8(2)---9(2)8(2)---9(2)8(2)-----
D----------------------------------------
G----------------------------------------

SE REPITE TODO 1 VEZ DESDE EL VERSO Y CONTINUA CON EL PUENTE...

-=PUENTE=-
   HO.......OOEEOO..ooeeEEOO00oo
B-------------------------------
E-9(12)11(2)-----------------9--
A----------8(2)----6-8-9-8-6----  X2
D-------------------------------
G-------------------------------

B--------------------------------9---------9(16)-
E-9(12)11(2)-----------------9-8---6-8-9(16)-----
A----------8(2)----6-8-9-8-6---------------------
D------------------------------------------------
G------------------------------------------------

-=CORO=-
-=FIN=-

AQUÍ LES DEJO ESTA ROLA MUY PEGAJOSA, ES EL SEGUNDO TAB QUE ME TOMO
EL TIEMPO PARA HACER, CALIFÍQUENMELO POR FAVOR, DIOS LES BENDIGA A TODOS
Y SALUDOS DESDE LOS MOCHIS, SINALOA, MÃ?XICO.
SURIA TE AMO, LE DOY MUCHAS GRACIAS A DIOS DIARIAMENTE POT TU VIDA
ESPERO EN DIOS PODER ESTAR CONTIGO EL RESTO DE MI VIDA Y PODER CUMPLIR
CADA UNA DE LAS PROMESAS QUE TENGA EL VALOR DE HACERTE JEJE.

-=CARLOS AGUILAR=-
Suggest correction
Give kudos to tab author, rate the tab!
1 2 3 4 5
comments
print report bad tab
guest
You may want to rate the tab now too:
select rating
Wanna post a correction for this tab? Suggest correction