Oops, an error
Loading. Please wait.

No Hay Otro Como Tu Bass

version 2
version 2

Whole song

27 views 1 this week
no commentswrite comment
1 2 3 4 5
3 more votes to show rating
add to favorites
launch autoscroll
font size
0
reset
guitar tuner
×
Best way to learn
"No Hay Otro Como Tu"
Autoscroll
slow
fast
+/-
esc
set tempo
stop
Bajo de 4 cuerdas:

la cancion esta en C#

El numero que esta 1ro es la nota que se toca y el numero
que esta entre paréntesis es el numero de veces que
se toca la nota

INTRO: empieza la bataca 4 compaces de 4/4

bataca y bajo:

E----------------------6(8)---
A----4(12)--6(2)--8(2)--------
D-----------------------------
G-----------------------------


E-------------------------------------6(2)-------------------------
A--9(2)--8(2)--6(2)--4(2)--6(2)--4(2)------4(2)---6(3)-------------
D------------------------------------------------------4(8)---6(8)-
G------------------------------------------------------------------


aqui entran las guitarras:

E------------------------------------6(12)----------4(16)-----
A----4(12)----------3(12)-------------------------------------
D---------5(1)--4(1)------5(1)--4(1)------5(1)--4(1)----------
G-------------------------------------------------------------

aqui empieza la letra:

1er estrofa:
      Tú eres mi Dios...
E-----------------------6(16)--------2(16)--------4(16)---------
A---4(16)-------------------------------------------------------
D---------------------------------------------------------------
G---------------------------------------------------------------

2da estrofa
     Para mi mejor lugar....
E-----------------------6(16)--------2(16)--------4(16)---------
A---4(16)-------------------------------------------------------
D---------------------------------------------------------------
G---------------------------------------------------------------

PRECORO:

    Todos sabran
E--------------2(1)-------------4(16)--------
A---6(1)-----------------6(8)----------------
D--------------------------------------------
G--------------------------------------------


CORO:

     No hay otro...
E----------------------6(8)---
A----4(12)--6(2)--8(2)--------
D-----------------------------
G-----------------------------


E-------------------------------------6(2)-------------------------
A--9(2)--8(2)--6(2)--4(2)--6(2)--4(2)------4(2)---6(3)-------------
D------------------------------------------------------4(8)---6(8)-
G------------------------------------------------------------------

2da vez no hay otro como tu

E----------------------6(8)---
A----4(12)--6(2)--8(2)--------
D-----------------------------
G-----------------------------


E-------------------------------------6(2)-------------------------
A--9(2)--8(2)--6(2)--4(2)--6(2)--4(2)------4(2)---6(3)-------------
D------------------------------------------------------4(8)---6(8)-
G------------------------------------------------------------------

aqui entran el arreglo de voz:
Oh... oh-eoh.....

E------------------------------------6(12)----------4(16)-----
A----4(12)----------3(12)-------------------------------------
D---------5(1)--4(1)------5(1)--4(1)------5(1)--4(1)----------
G-------------------------------------------------------------


Nuevamente vuelve a empezar con la 1er y 2da estrofa (se toca igual)
Nuevamente el coro (se toca igual)


PUENTE:

se queda la bataca 8 compaces de 4/4
empieza voz:

     Oh..(oh) oh-eh-oh
E--------------------------------------
A----4(12)------6(1)--8(1)-------------
D--------------------------------------
G--------------------------------------

    Oh--eh-eh-oh
E----------------------------------------------
A---6(1)--8(1)--9(1)--8(1)--6(1)--4(1)---------
D----------------------------------------------
G----------------------------------------------


     Oh--eh-eh-oh
E-------------------------------------------4(1)--6(1)------------4(16)
A---6(1)--8(1)--9(1)--8(1)--6(1)--4(1)--3(1)-----------3(1)---4(16)----
D----------------------------------------------------------------------
G----------------------------------------------------------------------


Nuevamente CORO TAL CUAL
y EL FINAL arreglo de voz el bajo hace
CORO:


aqui entran el arreglo de voz:
Oh... oh-eoh.....

E------------------------------------6(12)----------4(16)-----------
A----4(12)----------3(12)-------------------------------------4(1)--
D---------5(1)--4(1)------5(1)--4(1)------5(1)--4(1)----------------
G-------------------------------------------------------------------

espero sea de ayuda, realmente esta rola la saco mi profesor
de musica ya que yo apenas comienzo con el bajo pero cuado el la toca
se oye 100% igual, la escribi sin el bajo
asi que espero si este bien y no tenga errores.

saludos. DLB
Suggest correction
Give kudos to tab author, rate the tab!
1 2 3 4 5
comments
print report bad tab
guest
You may want to rate the tab now too:
select rating
Wanna post a correction for this tab? Suggest correction