Oops, an error
Loading. Please wait.

If You Were Mine solo tab

537 views 1 this week
no commentswrite comment
1 2 3 4 5
3 more votes to show rating
add to favorites
×
Save as Personal and add changes to this tab that will be seen only by you. Learn more ›
×
You can save this tab as Personal to edit and correct it or add notes. All changes will be seen only by you. Learn more »
launch autoscroll
font size
0
reset
how to read this tab
guitar tuner
edit
Autoscroll
slow
fast
+/-
esc
set tempo
stop
CAPO 2


Verses
(the whole thing is Plucking)

e--3~---3--------3--------3----3---3--------3--------3----3|
B--3~---3--3--3--3--3--3--3----3---3--3--3--3--3--3--3----3|
G----------0--0-----0--0--------------0--0-----0--0--------|
D----------------------------------------------------------|
A-------2--2--3--3-----------------2--2--3--3--------------|
E--3~---------------2--3--3----3---------------2--3--3----3|



e--3~---3--------3--------3----3---3--------3--------3----3|
B--3~---3--3--3--3--3--3--3----3---3--3--3--3--3--3--3----3|
G----------0--0-----0--0--------------0--0-----0--0--------|
D----------------------------------------------------------|
A-------2--2--3--3-----------------2--2--3--3--------------|
E--3~---------------2--3--3----3---------------2--3--3----3|



Chorus's

e--3--3--3-----------3
B--3--3--3--3--3--3--3
G-----------0--0--0---
D---------------------
A-----2--3------------
E--3--------2--3--3--3
(Repeat until chorus is over)



Chorus
If you were mine
I'd be your everything
And you'd be the only thing
That I would ever need

If you were mine
I would tell everyone
That you are the only one
That I could ever want

Ohh yeah

Verse 1

Everything I dream about
Everything I talk about
One thing I can't live without
I wanna get closer to you
Can't stand being far away
Knowing that you don't feel the same way
Watching them bring tears to your eyes

Chorus
If you were mine
I'd be your everything
And you'd be the only thing
That I would ever need

If you were mine
I would tell everyone
That you are the only one
That I could ever want

Ohh yeah

Verse 2

All the words I sing about
All the letters I'd write about
Only thing I wanna hear about
So then I get closer to you
I know there's someone else
That he is only thinking of himself
Doesn't make any sense
For you to be lonely

Chorus
If you were mine
I'd be your everything
And you'd be the only thing
That I would ever need

If you were mine
I would tell everyone
That you are the only one
That I could ever want

Ohh yeah

Let me be the one you share your hopes and dreams
And never be alone again 'cause I will hold you endlessly
Please don't be afraid to let your broken heart guide you
Into these open arms that long to surround you
Baby

Chorus
If you were mine
I'd be your everything
And you'd be the only thing
That I would ever need

If you were mine
I would tell everyone
That you are the only one
That I could ever want
(repeat 2x)

            
            
Suggest correction
Creating personal tab
Creating personal tab
You can edit any tab online and save it as your Personal.

You can edit, replace or remove any tab part or add personal notes – all changes will be seen only by you.

Personal tabs can be accessed anytime from any device, even offline.
Learn more »
Give kudos to tab author, rate the tab!
1 2 3 4 5
comments
print report bad tab
guest
You may want to rate the tab now too:
select rating
Wanna post a correction for this tab? Suggest correction