Oops, an error
Loading. Please wait.

Hay Algo En Ti Tab

43 views 1 this week
no commentswrite comment
1 2 3 4 5
3 more votes to show rating
add to favorites
launch autoscroll
font size
0
reset
how to read this tab
guitar tuner
×
Best way to learn
"Hay Algo En Ti"
Autoscroll
slow
fast
+/-
esc
set tempo
stop
Bueno aqui les dejo esta canción que no es de mis favoritas
pero la letra esta muy bien.
Le quiero dedicar esta canción a mi novia Karla!!
¡¡si volviera a nacer, volveria a creer en ti y en tu mirada!!


INTRODUCCION: (C F G F)

e|--------0------------------0------|
b|--0h1--1-1--1--1--1/3-3---3-3---1-|
g|------0---0---2----------4---4----|
d|------------3-----3/5-5---------3-|
a|--0h3-----------------------------|
e|----------------------------------|

e|-------------------0----------------0----------|
b|-0h1p0---------1--1-1--1--1-1/3-3--3-3---1---1-|
g|-----------------0---0---2--------4---4-----2--|
d|-------0-2-0-----------3----3/5-5--------3-3---|
a|-------------0-3-------------------------------|
e|-----------------------------------------------|


C           G           F                    C  F  G  F
Hay algo en ti que me anula, los cinco sentidos,
C           G          F                       C
Hay algo en ti que estimula, la ternura de un niño,
      G                   Am     F          C
Que vive en mi, que vive en ti, y me dejo llevar por ti,
  G              Am                   Dm7          G
Llevar por ti, llevar por ti, dando vueltas alrededor,
          C F G F
De tu mirada.


C           G           F                     C  F G F
Hay algo en ti que me aparta, de mis convicciones,
C           G           F                           C
Hay algo en ti que faltaba, y es tu calor en mis noches,
      G                  Am       F         C
Que vive en mi que vive en ti, y me dejo llevar por ti,
  G                Am                 Dm7          G
Llevar por ti, llevar por ti, dando vueltas alrededor,
          C C7
De tu mirada.


          F                   Fm
Y si volviera a nacer, te volvería a querer,
 C                Em        Am       Dm7      G
Volvería  a conquistarte, volvería a enamorarme,
   F                Fm        Dm7      G
Si vuelvo a nacer, volvería a creer en ti,
              C F G F
Y en tu mirada.


C           G           F                  C  F G F
Hay algo en ti que fulmina, todos mis errores,
C           G           F                        C
Vistes de azul a mi suerte, que a menudo se esconde,
    G                        Am   F          C
Y que vive en mi,que vive en ti, y me dejo llevar por ti,
 G                Am                 Dm7           G
Llevar por ti, llevar por ti, dando vueltas alrededor,
            C C7
De tu mirada.


           F                    Fm
Y si volviera a nacer, te volvería a querer,
 C              Em        Am              Dm7 G
Volvería  a conquistarte, volvería a enamorarme,
  F                  Fm        Dm7      G
Si vuelvo a nacer, volvería a creer en ti,
             C F G F
Y en tu mirada.

            G            F                      C F G F C
Hay algo en ti que es eterno, por favor no cambies.

e|------0------------------0-----------------------|
b|--1--1-1--1--1--1/3-3---3-3---1--0h1p0--------1--|
g|----0---0---2----------4---4------------------0--|
d|-----------3----3/5-5---------3--------0-2-0--2--| FIN...
a|--3-------------------------------------------3--|
e|-------------------------------------------------|
Suggest correction
Give kudos to tab author, rate the tab!
1 2 3 4 5
comments
print report bad tab
guest
You may want to rate the tab now too:
select rating
Wanna post a correction for this tab? Suggest correction