Oops, an error
Loading. Please wait.

La De Siempre Tab

7 views 1 this week
no commentswrite comment
1 2 3 4 5
3 more votes to show rating
add to favorites
launch autoscroll
font size
0
reset
how to read this tab
guitar tuner
Autoscroll
slow
fast
+/-
esc
set tempo
stop
Help us to improve Ultimate-Guitar.com Take our survey!
×
Hola amigos.

Aquí les envío esta transcripción de Llunas: Vida,
una rola no muy facil de sacar en guitarra, ya que tiene muchos arreglos
con el bajo y es dificl determinar los acordes, pero tienen
aquí una versión sencilla de tocar y de acompañar con la tablatura.

Saludos!

Intro    Riff 1

Riff 1
    C                                           A  E
e-------------------8-8------------------------------
B---------------8-8-----8-8--------------------------
G----------------------------------------------------
D---------10-10-------------10-10------2-3-2-0-0/2---
A---10-10-----------------------------3-----3--------
E------------------------------------3---------------
                          E
e---------------5-5-----------
B-----------5-5-----5-5-------
G-----------------------------
D-------7-7-------------7-7---
A---7-7-----------------------
E-----------------------------

Amaj7                   Bm7    E
La que me sabe hacer beber,
Amaj7       Dm       C#m7   F#m
la magia negra de su piel,
D               /C#                Bm7
la que me adora, la que me ignora,
         Dm          E
lo clásico de una mujer.

C#m7        F#m          Bm7   E
Y no es gran cosa ya lo sé,
Amaj7       Dm       C#m7   F#m
pero es tan mía, a la vez,
D               /C#
no sé si es bella, pero está en ella,
      Bm7                 D          E
y me gusta como es, y me sabe comprender,

CORO
     C#m7 F#m      Bm7           E
La de siempre, tan dulce y tan felina,
      C#m7 F#m    D         E
sorprendente, diabólica y divina,
       C#m7 F#m  Bm7
la de siempre, tan desconcertante,
  D              E           A  F  Intro
pero tan buen amante, y tan mía.


(mismos acordes que 2ª estrofa)
La que me sabe acariciar,
hasta llegarme desbordar,
toda ternura, toda locura,
ya que más yo puedo hacer, si me gusta esta mujer,

CORO
     Cm7             F     Cm7   F
...pero tan buena amante.

      Dm   Gm       Cm7           F
La de siempre, tan dulce y tan felina,
        Dm  Gm    D#        F
sorprendente, diabólica y divina,
       Dm  Gm   Cm7
la de siempre, tan desconcertante,
                    F Riff 2   Riff 3
pero tan buen amante, y tan mía.


Riff 2

e-----11/13-11--------8/10-8------
B---------------------------------
G--12------------------------12---
D---------------12-13-------------
A---------------------------------
E---------------------------------

Riff 3
  Bb              D#               Gmaj7
e---------------6-6---------------------
B-----------6-6-----6-6----7-6----------
G-------------------------------7-8-7---
D-------8-8-------------8---------------
A---8-8---------------------------------
E---------------------------------------
Suggest correction
Give kudos to tab author, rate the tab!
1 2 3 4 5
comments
print report bad tab
guest
You may want to rate the tab now too:
select rating
Wanna post a correction for this tab? Suggest correction