Oops, an error
Loading. Please wait.

Por Amor Tab

14 views 3 this week
no commentswrite comment
1 2 3 4 5
3 more votes to show rating
add to favorites
×
Save as Personal and add changes to this tab that will be seen only by you. Learn more ›
×
You can save this tab as Personal to edit and correct it or add notes. All changes will be seen only by you. Learn more »
save as personal
new!
launch autoscroll
font size
0
reset
how to read this tab
guitar tuner
Autoscroll
slow
fast
+/-
esc
set tempo
stop
Está canción se la dedico a Lisseth, mi enamorada, a quien amo mucho. =D


Em* = x2000x

Intro: A - F#m - D - Dm - E
e|-----------------------------------------2/4.-4/5----------------------------|
B|------------------------------------2.------------7.---5-5/3-3/2-2/0---------|
G|---2-2/4-2-4.--4/6.-----2-2/4-2-4.-----------------------------------2-2/4.--|
D|-2--------------------2------------------------------------------------------|
A|-----------------------------------------------------------------------------|
E|-----------------------------------------------------------------------------|

       A                                    F#m
Por amor he vivido lo más excitante, me he sentido frustrado
                                       D
he encontrado lugares errantes y a ninguno he llegado
      Bm                              G      E
no he sabido dejarme llevar cuando me he equivocado.
       A                              F#m
Por amor nunca hay nada, ni bueno ni malo, todo es tan humano
                                       D
que aunque quiera yo darle la vuelta no está en mi mano
Bm                                       G
aunque sufra y me dé de cabeza por verte a mi lado.


*CORO*
           C
Por amor descubro, por amor te extraño
            Am
por amor te sueño y voy de tu mano
      F                             Dm                   Bb     G
por amor me siento diferente, voy nadando contra la corriente.
            C
Por amor soy bueno, por amor soy malo
          Am
soy un navegante que un día ha naufragado
      F
que dibuja una mirada ausente
      Dm              G              A - F#m - D - Bm - E
te descubre de entre tanta gente, por amor...


      A                                F#m
Por amor se conjugan todas las estrellas del firmamento
                              D
para que nos sintamos unidos en este momento
      Bm                                      G
para que un solo instante se vuelva una eternidad.


*CORO*
           C
Por amor descubro, por amor te extraño
            Am
por amor te sueño y voy de tu mano
      F                             Dm                   Bb     G
por amor me siento diferente, voy nadando contra la corriente.
            C
Por amor soy bueno, por amor soy malo
          Am
soy un navegante que un día ha naufragado
      F
que dibuja una mirada ausente
      Dm              G
te descubre de entre tanta gente.


      F               G
He querido romper con tus besos
       Am      Em*      C
he soñado con verte partir
      Dm              D
pero cuando más lejos te siento
      G              G#
más quiero estar junto a ti.


SOLO: C# - A#m...
e|-16/18.-16----16.---------16----21-21-18--21-21-18--21-21-18----21/23-21..--|
B|-----------18----------18---------------21--------21--------21--------------|
G|--------------------18------------------------------------------------------|
D|----------------------------------------------------------------------------|
A|----------------------------------------------------------------------------|
E|----------------------------------------------------------------------------|

...    F#                       D#m             B   G#
por amor me siento diferente, voy nadando contra la corriente.


            C#
Por amor soy bueno, por amor soy malo
          A#m
soy un navegante que un día ha naufragado
      F#
que dibuja una mirada ausente
      D#m              G#
te descubre de entre tanta gente

           C#
Por amor descubro, por amor te extraño
            A#m
por amor te sueño y voy de tu mano
      F#                  D#m         G#
te descubro de entre tanta gente, tan diferente
      Bb
por amor...


                 --------
              º-| ¤    ¤ |-º
              º-|  LuïS  |-º
              º-| ¤    ¤ |-º
                 \      /
                |    |
      ·===========================·
      | luis_6cuerdas@ |
      ·===========================·


*Si hubiese algún error o alguna duda, escribe al mail o avisa por MSN*
Suggest correction
Give kudos to tab author, rate the tab!
1 2 3 4 5
comments
print report bad tab
guest
Wanna post a correction for this tab? Suggest correction