Oops, an error
Loading. Please wait.

Sentir Tab

205 views 3 this week
no commentswrite comment
1 2 3 4 5
3 more votes to show rating
add to favorites
launch autoscroll
font size
0
reset
how to read this tab
guitar tuner
Autoscroll
slow
fast
+/-
esc
set tempo
stop
Esta version esta hecha para una guitarra afinada medio tono abajo de
MI, para una guitarra afinada en MI deberan poner un capo en el 1er
traste y usar un circulo de acordes de MIm (es decir 1 tono bajo F#m)

Esta es mi primera Transcripcion en  un sitio que visito
desde mis inicios con guitarra, espero que sea de su agrado...
saludos.

DO#7* x4342x
MIsus 022200
LAsus 002230

Intro:
(en la cancion es piano)
  [ch]F#m          [ch]E[/ch]                    LA[/ch]         [ch]D[/ch]  .
e-14------17------16------14-16-14----12-----12--10--|
B-----14------14-------------------14----10----------|
G---------------------16-----------------------------|
D----------------------------------------------------|
A----------------------------------------------------|
E----------------------------------------------------|

                  [ch]F#m      [ch]E[/ch]               LA[/ch]       [ch]D[/ch]            .
e----------------------------------------------------------14-14-14-|
A-12-10-9---------------10--9----9----------------------------------|
G---------11-10-9-11---------------11-9---9-----9---9-11------------|
B--------------------11-----------------9---9-9---9-----------------|
D-------------------------------------------------------------------|
E-------------------------------------------------------------------|


ESTROFA:
   [ch]F#m                   [ch]E  MI7[/ch]               FA#m[/ch]
Sentir, ¿quién define sentir?    con palabras exactas...
          [ch]A        [ch]D         [ch]E[/ch]  MIsus[/ch] MI[/ch]
¿quién conoce el mensaje del alma?,
      [ch]D         [ch]E[/ch]       [ch]C#7*[/ch]      FA#m[/ch]
variedad de emociones, de brisa y de calma,
    [ch]D     [ch]F#m        SIm[/ch]       [ch]E[/ch]  MI7[/ch]
de risas y llanto de intensa pasión...

   [ch]F#m                   [ch]E  MI7[/ch]                    FA#m[/ch]
Sentir, tu me hiciste sentir     con la magia que encanta...
      [ch]A          [ch]D          [ch]E[/ch]  MIsus[/ch] MI[/ch]
es lo mismo si estás o me faltas,
      [ch]D       [ch]E[/ch]       [ch]C#7*[/ch]   FA#m[/ch]
ya no busco razones, contigo me basta,
    [ch]D        [ch]F#m     SIm7[/ch]     MI[/ch]
si llenas mis ansias de mi corazón...

CORO:
   [ch]A     [ch]E[/ch]      [ch]D[/ch]           MI[/ch]
Sentir así, no lo cambio por nada,
              [ch]A      [ch]E[/ch]     [ch]D[/ch]       MI[/ch]
el día que llegaste a mí, saciaste mi sed,
      [ch]D             [ch]E[/ch]          [ch]C#7*[/ch]     FA#m[/ch]
a la vida no le pido nada, tu me vales por tres,
      [ch]D           [ch]F#m     SIm7[/ch]       MI[/ch]
soy feliz con tus ojos,  de buena mujer...

   [ch]A     [ch]E[/ch]      [ch]D[/ch]           MI[/ch]
Sentir así, no le temo a mas nada,
            [ch]A        [ch]E[/ch]            [ch]D[/ch]         MI[/ch]
te has dado sin reserva a mí, en un pacto de amor,
      [ch]D             [ch]E[/ch]          [ch]C#7*[/ch]     FA#m[/ch]
a la vida no le pido nada, tu me vales por tres,
      [ch]D           [ch]Bm      [ch]E[/ch]        [ch]A[/ch]  LAsus[/ch] LA[/ch]
soy feliz con tus manos, de buena mujer...


OUTRO:
         [ch]Em     [ch]D           [ch]A[/ch]  LAsus[/ch] LA[/ch]
Seré tu amigo estés donde estés,
         [ch]Em            [ch]D         [ch]A[/ch] LAsus[/ch] LA[/ch]
Seré tu fuerza cuando pierdas la fe,
        [ch]F#m[/ch]               [ch]E[/ch]       [ch]D[/ch]
en el momento en que el defecto aparezca,
      [ch]A           [ch]D[/ch]      SIm7[/ch]        [ch]C#7[/ch]
no le demos más vueltas abrázate a mí...
   [ch]F#m                   [ch]C#7[/ch]              FA#m[/ch]
Sentir, ¿quién define sentir? con palabras exactas...

SOLO MEDIO:
(en la cancion es piano)
   ... [ch]F#m ...        [ch]A       [ch]D[/ch]            [ch]E[/ch]            MIsus[/ch] MI[/ch] .
e-----------------9-10s12-12-12-12--14-------------------------------|
B--------------------------------------15-14--12---------------------|
G-------------------------------------------14---------11---14-13----|
D-0-2-4---4-6-7----------------------------------12-14----11---------|
A-------4-------9----------------------------------------------------|
E---rif-pre-solo-|---------------------------------------------------|

(en la cancion es guitarra electrica)
  [ch]D          [ch]E[/ch]       [ch]C#7[/ch]                  FA#m[/ch] .
e----------------------------------------------12--|
B-14-15-15s17-17-------------12h14-12--------------|
G----------------14-13----------------14-13-14-----|
D----------------------16-14-----------------------|
A--------------------------------------------------|
E--------------------------------------------------|

           [ch]A             [ch]D[/ch]                 SIm7[/ch] .
e-------------14-14-16h17-19--17h16-17-16-14-14---|
B-------------------------------------------------|
G-14-14-13-14-------------------------------------|
D-------------------------------------------------|
A-------------------------------------------------|
E-------------------------------------------------|


            [ch]E          MI7[/ch]         .
e-----14-------17-16-14-12----------|
B--14----14-17-------------12-12-10-|
G-----------------------------------|
D-----------------------------------|
A-----------------------------------|
E-----------------------------------|


CORO:
   [ch]A     [ch]E[/ch]      [ch]D[/ch]           MI[/ch]
Sentir así, no lo cambio por nada,
              [ch]A      [ch]E[/ch]     [ch]D[/ch]       MI[/ch]
el día que llegaste a mí, saciaste mi sed,
      [ch]D             [ch]E[/ch]          [ch]C#7[/ch]      FA#m[/ch]
a la vida no le pido nada, tu me vales por tres,
      [ch]D           [ch]F#m     SIm7[/ch]       [ch]E[/ch]  MI7[/ch]
soy feliz con tus ojos,  de buena mujer...

   [ch]A     [ch]E[/ch]      [ch]D[/ch]           MI[/ch]
Sentir así, no le temo a mas nada,
            [ch]A        [ch]E[/ch]            [ch]D[/ch]         MI[/ch]
te has dado sin reserva a mí, en un pacto de amor,
      [ch]D             [ch]E[/ch]          [ch]C#7[/ch]      FA#m[/ch]
a la vida no le pido nada, tu me vales por tres,
      [ch]D           [ch]Bm      [ch]E[/ch]        [ch]A[/ch]  LAsus[/ch] LA[/ch]
soy feliz con tus manos, de buena mujer...


FINAL:
      [ch]D             [ch]E[/ch]          [ch]C#7[/ch]     FA#m[/ch]
a la vida no le pido nada, tu me vales por tres,
  [ch]D                [ch]Bm[/ch]    MI[/ch]
soy feliz con tus manos... de buena
  [ch]F#m               [ch]E[/ch] MI7[/ch]
mujer... Uhhh uhh Uhh uhh                                                .
e-14------17------14------17--21--16------16------14------10-12-10-9-10--|
B-----13------13------13------------------------------12-----------------|
G-------------------------------------16------16-------------------------|
D------------------------------------------------------------------------|
A------------------------------------------------------------------------|
E------------------------------------------------------------------------|

 [ch]E7    [ch]A[/ch]    [ch]D[/ch]    LA[/ch]  .
e-0---------------0-----|
B----3--2---0-2-3---2---|
G---------2---------2---|
D-------------------2---|
A-----------------------|
E-----------------------|

y eso es todo.

@@@@@@@@@@@@@@@@@@@@@@@@@@@@@@@@@@@@@@@@@@@@@@@@@@@@@@@@@@
Dedicada a quienes me han dado el mayor sentido a mi vida.
el amor de mi vida Marisabel Sulca A.
y mi madre adorada Maria Feria C.
con cada latido de mi corazon...
y al arte de la musica...al arte del canto...
                                   Marco Antonio L.F.
??????????????????????????????????????????????????????????


tambien les transcribo el intro y el solo en notas bajas para
prefieran usarlas en vez de las notas altas en el diapason.

Intro:
(en la cancion es piano)
  [ch]F#m        [ch]E[/ch]            LA[/ch]       [ch]D[/ch]  .
e-------5-----4-----2-4-2---0-----0------|
B-7-----------------------2----------3---|
G----6-----6-----4-------------2---------|
D----------------------------------------|
A----------------------------------------|
E----------------------------------------|

              [ch]F#m     [ch]E[/ch]           LA[/ch]          [ch]D[/ch]        .
e---------------------------------------------------2-2-2-|
A---------------------------------------------------------|
G-4-2-1-------------2--1----1-----------------------------|
B-------4-3-2-4---------------4-2---2-----2---2-4---------|
D----------------4----------------2---2-2---2-------------|
E---------------------------------------------------------|

SOLO MEDIO:
   ... [ch]F#m ...       [ch]A    [ch]D[/ch]      [ch]E[/ch]       MIsus[/ch] MI[/ch] .
e-----------------------------2-----------------------|
B-----------------2-3s5-5-5-5---3-2-0-----------------|
G-----------1-2--------------------2---------2-1------|
D-0-2-4---4-----4---------------------0-2-4-----------|
A-------4--------|--------------------------4---------|
E---rif-pre-solo-|------------------------------------|
  [ch]D      [ch]E[/ch]     [ch]C#7[/ch]          FA#m[/ch].
e--------------------------------0-|
B-2-3-3s5-5----------0h2-0---------|
G-----------2-1------------2-1-2---|
D---------------4-2----------------|
A----------------------------------|
E----------------------------------|
       [ch]A         [ch]D           SIm7[/ch]     [ch]E[/ch]      MI7[/ch]     .
e---------2-2-4h5-7--5h4-5-4-2-2----2-----5-4-2-0-------|
B---------------------------------2---2-5---------0-0---|
G-2-2-1-2---------------------------------------------2-|
D-------------------------------------------------------|
A-------------------------------------------------------|
E-------------------------------------------------------|

FINAL                                                   .
e-------5-----------5--9--4-----4-----2--------0--------|
B-7-----------7--------------0-----0-----0---3---3-2-3--|
G----6-----6-----6--------------------------------------|
D-------------------------------------------------------|
A-------------------------------------------------------|
E-------------------------------------------------------|
Particularmente me gusta terminarlo con este final en notas bajas...

 [ch]E7    [ch]A[/ch]    [ch]D[/ch]    LA[/ch]  .
e-0---------------0-----|
B----3--2---0-2-3---2---|
G---------2---------2---|
D-------------------2---|
A-----------------------|
E-----------------------|
Suggest correction
Give kudos to tab author, rate the tab!
1 2 3 4 5
comments
print report bad tab
guest
Wanna post a correction for this tab? Suggest correction