Oops, an error
Loading. Please wait.
11 views 1 this week
no commentswrite comment
1 2 3 4 5
3 more votes to show rating
add to favorites
launch autoscroll
font size
0
reset
how to read this tab
guitar tuner
×
Best way to learn
"Vida"
Autoscroll
slow
fast
+/-
esc
set tempo
stop
Intro     Riff 1


Riff 1
  A                C#m F#m D      E         C#m F#m Bm7           E
e--------------------------------------------------------------------
B-----10-10--9-9--7--------------------------------------------------
G---9---------------9----------11-11--9-9--7-9-----------------------
D----------------------------7-----------------------------7-9/11-9--
A----------------------------------------------------9--11-----------
E--------------------------------------------------------------------


              Riff 2
Vida, mi vida,
                Riff 3
vida, mi vida,
vida, mi vida,
no tan sólo el amor le da vida a un amor,
y juntos, defenderemos un sueño aprendiendo a volar,
Oh! vida, [ch]E vida,               MI[/ch] vida

Riff 2
   G#/C         Fm7    Bb     D#
e---------------------------------
B------8-9-8----------8-9-8-------
G---10-------10-8---10------10-8--
D---------------------------------
A---------------------------------
E---------------------------------

Riff 3
   G#/C         Fm7    Bb      D#
e----------------------------------
B------8-9-8-----------8-----------
G---10-------10-8---10---10-8-7-8--
D----------------------------------
A----------------------------------
E----------------------------------
Suggest correction
Give kudos to tab author, rate the tab!
1 2 3 4 5
comments
print report bad tab
guest
You may want to rate the tab now too:
select rating
Wanna post a correction for this tab? Suggest correction