Oops, an error
Loading. Please wait.

Al Rey Tab

41 views 1 this week
no commentswrite comment
1 2 3 4 5
3 more votes to show rating
add to favorites
launch autoscroll
font size
0
reset
how to read this tab
guitar tuner
Autoscroll
slow
fast
+/-
esc
set tempo
stop
intro:
//D (D-C)//

e:----------------------------------
B:----------------------------------
G:------0--0--0--0----------------------
D:----------------------------------
A:-0-2-3--2--0---------------------------
E:--------------3--2-3-5----------------

 //D (D-C)//

e:-------------------------------------
B:-------------------------------------
G:------0--0---------------------------
D:-------------------------------------
A:-0-2-3--2--0-------------------------
E:-------------------------------------

/D A/

   e:-------------------------------------
   B:--------7-10--------------3----------
   G:-----7-9-----9-----6-----------------
   D:-7h9-----------7h9---9h7-------------
   A:-------------------------------------
   E:-------------------------------------

/D A/

   e:----------------------------------------
   B:--------7-10----------------------------
   G:-----7-9-----9---6----------------------
   D:-7h9---------------9-7-9-7--------------
   A:----------------------------------------
   E:----------------------------------------


D      A               D       A
Desde los montes hasta el mar
D         A          D     A
resuena un canto sin cesar
Bm   A      G           D/F#   ///A///
toda la creacion te alabaaaaaa
D     A         D   A
Como podria yo dejar
D       A              D    A
de proclamar tu majestad
Bm      A      G          D/F#   ///A///
si por ti subsiste mi almaaaaaa

CORO:

    D (D-C)     D (D-C)
Al rey      Al rey
       A  (A-G)       A
solo A el      solo A el
      Em/G
todos le alabaran
       D/F#            E   Esus
todos se postraran ante el
    D (D-A)     D (D-A)
Al rey      Al rey
       A (A-G)       A   (A-B)
solo A el     solo A el
     Em/G           D/F#
toda lengua confesara
       E Esus         D
que jesus   es el rey
Suggest correction
Give kudos to tab author, rate the tab!
1 2 3 4 5
comments
print report bad tab
guest
You may want to rate the tab now too:
select rating
Wanna post a correction for this tab? Suggest correction