Oops, an error
Loading. Please wait.

Dulce Refugio Tab

120 views 1 this week
no commentswrite comment
1 2 3 4 5
3 more votes to show rating
add to favorites
launch autoscroll
font size
0
reset
how to read this tab
guitar tuner
Autoscroll
slow
fast
+/-
esc
set tempo
stop
Help us to improve Ultimate-Guitar.com Take our survey!
×
¡¡¡Muchísimas Gracias Padre Celestial porque continúas perfeccionando
el hermoso Talento que me has dado!!!
¡ALABADO SEA TU NOMBRE!

Intro: (Guitarra)

      e|--------3-------3-------3-------3-------3-------3---------------------
      B|------1-------1-------1-------1-------1-------1--------------------3--
      G|----4-------4-------4-------4-------4-------4------------5---4-5--4---
      D|-------------------------------------------------------5---5-5-5-5----
      A|--3-------3-------3-------3-------3-------3---------------------------
      E|---------------------------------------------------3------------------

      e|------0---0-1/3----3-----------5---5-7---8--------
      B|------1---1-1/3---3--3-3-------6---6-8--8----8-8--
      G|----0---0--------0-----------5---5---7-9----------
      D|---------------------------3----------------------
      A|--3-----------------------------------------------
      E|----------------3--------------------------0------

      e|------5---5-7---8------3----------------------------------
      B|------6---6-8--8------3----6---5----3------3-------3------
      G|----5---5---7-9------4----5---4----4---------5-------5-4--
      D|--3----------------------5---5----3------3-------3--------
      A|----------------------------------------------------------
      E|------------------0--------------3-----4-------3----------

      e|------0---0-1/3----3--------------5-5-7---8--------
      B|------1---1-1/3---3--3-3-------1--6-6-8--8----8-8--
      G|----0---0--------0-------3-3--2---5-5-7-9----------
      D|-------------------------3-3-3---------------------
      A|--3------------------------------------------------
      E|----------------3---------------------------0------

      e|------5---5-7----8-7----5---7--------8-------8-------8---------3--|
      B|------6---6-8---8------6---8-----------------8-------8--------3---|
      G|----5---5---7--9------5---7--------9---9---9---9---9---9---4-4----|
      D|--3---------------------------------------------------------------|
      A|--------------8------------------8-------7-------5----------------|
      E|---------------------3-----------------------------------3--------|

Armonizado en C9* y C9' (Teclado)
                                          (*) --> Junto con la Guitarra
      e|---------------------------------3------------------------|
      B|-----3-----3-----3-----3--------3------3-----3-----3------|
      G|----5--5-----5-----5-----5-----5---5-----5-----5-----5----|
      D|---5-----5-----5-----5-----5--5------5-----5-----5-----5--|
      A|--3--------------3-----------3---------------3------------|

Tab: (*)

      B|--8/10-8----------|
      G|---------5-5h7----|
      D|---------------5--|

Primera Parte:

C        G             F        C             F       C
 Dulce Refugio...      en la tormenta...      es Jesucristo...

      e|------------------------8-8-8-7-5---5---------------------|
      B|--------12------10----------------8-6------------5-6-6/8--|
      G|-----12----12-10------------------------------------------|

       G
el Salvador.

      e|-----8-8-8-10-8-7h8-7----------------------|
      B|----------------------10-8-----------------|
      G|---------------------------10-9-8-7-7-8-9--|

C        G            F      C           F            G          C
 Él me alienta...       y alimenta...            con su Palabra y su Amor

      e|-----5h7-5h7--5-------7h8-----------------------------------------------|
      B|---8---------6------------8-7h8---10-----------------------------3-4-5--|
      G|--------------------------------9---------------------------------------|

Segunda Parte:

  C          G             F        C           F             C
   Dulce Refugio...      en la tormenta...     es Jesucristo...

      e|---------------------------------5----------------3--|
      B|-----8/10-8----------------5-5-5-6------------1-1----|
      G|--7------------------------5-5-5-5-------------------|
      D|-----------------------------------------------------|
      A|-----------------------------------------------------|
      E|------------1----------------------------------------|

       G
el Salvador.

      e|--8-8-8-7-5-------------|
      B|------------6--6/8-6----|
      G|---------------------9--|

C        G            F      C           F            G          C
 Él me alienta...       y alimenta...            con su Palabra y su Amor.

      e|---7h8p7---------------------------------------------3--------------|
      B|---------8---10------------6h8-6---------------1-1-1-------5-6-3-5--|
      G|-----------9-10--------------------------------------------5-5-4-5--|
      D|--------------------------------------------------------------------|
      A|-------------8------------------------------------------------------|

Coro:
           F         G       C                  F G     Am
Vengo a reposar... en... Él...  Él es mi... Amigo... Fiel,

      e|----------3----------------------------------8-7------------------|
      B|--------1--------6/86-5---------------8---------10-8-----8-8h10--|
      G|------2------------------5-4-------5-7----------------9-7---------|
      D|-----------------------------7-5-7--------------------------------|
      A|------------------------------------------------------------------|
      E|----1-------------------------------------------------------------|

          D                 G                   C         F
   una Poderosa y Fresca Unción... llenará mi corazón.

      e|--------2----------------------1/3-3--------1-------5-5----------|
      B|------3-----3--------------3---1/3---------1--------6---6--------|
      G|----2-----2-----0--------4----------------2---------------7-7/9--|
      D|--0-----------0--------5-----------------3-----------------------|
      A|---------------------5-------------------------------------------|
      E|-------------------3---------------------------------------------|

Primera Parte:

 C         G             F        C             F       C
  Dulce Refugio...      en la tormenta...      es Jesucristo...

      e|--7-8-7-----------------------------------------------3--|
      B|--8-8-8-86-6--------------5/6-5----------------1-1-1----|
      G|------------5--------------------7-5---------------------|
      D|-------------------------------------5h7-----------------|

       G
el Salvador.

      e|--6-8-6---------3-----3------|  ===>  Obs:  Los del Traste 3 (1ra cuerda)
      B|------------1-----0-----3/5--|            se Toca y se Apaga.
      G|--------------0-----0--------|
      D|-----------------------------|
      A|------------0-----2-----3----|
      E|-----------------------------|

C        G            F      C           F            G          C
 Él me alienta...       y alimenta...            con su Palabra y su Amor.

      e|---------------------12-12-7h8p7--------------|
      B|---------------------------------10-8---------|
      G|--------------------------------------9-7-----|
      D|---5-7h9-7h9--7---------------------------10--|
      A|-------------8--------------------------------|

Coro:
           F         G       C                  F G     Am
Vengo a reposar... en... Él...  Él es mi... Amigo... Fiel,

      e|----------3----------------------------------8-7------------------|
      B|--------1--------6/86-5---------------8---------10-8-----8-8h10--|
      G|------2------------------5-4-------5-7----------------9-7---------|
      D|-----------------------------7-5-7--------------------------------|
      A|------------------------------------------------------------------|
      E|----1-------------------------------------------------------------|

          D                 G                   C         F
   una Poderosa y Fresca Unción... llenará mi corazón.

      e|--------2----------------------------3------1--|
      B|------3-----3--------------3---------------1---|
      G|----2-----2-----0--------4----------------2----|
      D|--0-----------0--------5-----------------3-----|
      A|---------------------5-------------------------|
      E|-------------------3---------------------------|

      e|-----5-------------8-------------------5---------5---------5--|
      B|----6-------------8--------------6---6-----6---6-----6---6----|
      G|---5-------------9-------------5---5-----5---5-----5---5------|
      D|--3------------10------------3--------------------------------|
                              <------- Arpegio Rápido ------>

 C         G   F        C   F             C            G
  Dulce Refugio en la tormenta es Jesucristo el Salvador,

 C         G   F      C        F           G                 C  Am
  Él me alienta y alimenta con su Palabra y su Amor,

 F          G            C  Am
  con su Palabra y su Amor,

            e|---------8-----------|
            B|-------8---8-8-8h10--|
            G|-----9---------------|
            D|--10-----------------|

 F          G            C
  con su Palabra y su Amor.

                        e|------3-------3-------3------3----|
                        B|--------1-------1-------1------1--|
                        G|----4-------4-------4------4------|
                        D|----------------------------------|
                        A|--3-------3-------3-------3-------|

================
Acordes: EADGBe

C9*       x3553x
C9'       x35533
Suggest correction
Give kudos to tab author, rate the tab!
1 2 3 4 5
comments
print report bad tab
guest
You may want to rate the tab now too:
select rating
Wanna post a correction for this tab? Suggest correction