Oops, an error
Loading. Please wait.

El Milagro Tab

version 1
version 1

Whole song

89 views 1 this week
no commentswrite comment
1 2 3 4 5
3 more votes to show rating
add to favorites
launch autoscroll
font size
0
reset
how to read this tab
guitar tuner
×
Best way to learn
"El Milagro"
Autoscroll
slow
fast
+/-
esc
set tempo
stop
Hola a todos, esta es mi primera transcripción y esta canción me
toca mucho pues verdaderamente Dios realizo un verdadero milagro
en mi vida y me cambio totalmente suena mejor con dos guitarras
ya hice la prueba escuchando la canción se puede acomodar
si se parece a cualquier otra jejeje perdón no pos me toco
sacarla de oído si pueden modificarla bienvenido sea?

(si no tienen un cello se puede improvisar con Am, F acomodandose
un poco al tono)
Esta parte va más o menos después que termina el intro del cello.

RIFF 1
E|-------------------------------------------------------
B|--------3-3s5-5-5-6------8-6-5---5-5-5-6---------------
G|--2-4-5-------------5s7--------7---------5s7------5p4h5
D|-------------------------------------------------------
A|-------------------------------------------------------
E|-------------------------------------------------------

Esta se la toca en modo arpegio suavemente siguiendo el ritmo de la
tonada..

Am              Em                   F
Aún no puedo asimilar lo que me ha sucedido,
Am              Em                  F     A7sus4 - A7
el milagro más glorioso que yo he vivido,
Dm              G5/D                    Am
que después de malgastar lo que no era mío
F                     E
no he tenido que pagar ;

Am                   Em           F
traicioné a aquel que me perdonó la vida,
Am              Em              F     A7sus4 - A7
humillé al que curó toda mi herida,
Dm              G5/D            Am
y en mi huida coseché lo que merecía,

Aqui comienza con la segunda guitarra

RIFF 2
E|---------------------------------------------
B|--------3-3s5-5-5-6------8-6-5---5-5-5-6-----
G|--2-4-5-------------5s7--------7---------5s7-
D|---------------------------------------------
A|---------------------------------------------
E|---------------------------------------------

            F           G
y desvanecido en mi dolor
             F                G
en algún momento Él me encontró,


Esta parte si lleva un rasgueo leve...

A                     E            D
Y he despertado en el redil, no sé como,
A                 E            D
entre algodones y cuidados del Pastor,
Bm                         E
y antes de poder hablar de mi pasado,
F                            E
me atraviesan Sus palabras y Su voz :

A                    E                  D
Que se alegra tanto de que haya vuelto a casa,
A                   E                  D
que no piense, que descanse, que no pasa nada,
Bm                       E
y dormido en su regazo, lo he sabido,
E                  D           A
tengo Vida, tengo Dueño y soy querido.

RIFF 3
E|---------------------------------------------------------------
B|--------3-3s5-5-5-6------8-6-5-6-5-5-5-6-----------------8h10-8
G|--2-4-5-------------5s7------------------5s7-5p4h5-7h9-7-------
D|---------------------------------------------------------------
A|---------------------------------------------------------------
E|---------------------------------------------------------------

Se toca igual que al principio con un arpegio suave

Am              Em                   F
He aprendido la lección del amor divino,
Am              Em              F          A7sus4 - A7
que me transformó, cruzándose en mi camino,
Dm             G5/D              Am
y que dio a mi vida entera otro sentido,
F                 E
otra meta y otro fin ;

Am                Em                F
yo no sé lo que traerá para mi el mañana,
Am              Em                F     A7sus4 - A7
pero sé que nunca se apagará su llama,
Dm             G5/D            Am
salga el sol por donde quiera, Él me ama,

RIFF 4
E|--------------------------------------------------
B|--------3-3s5-5-5-6------8-6-5-6-5-5-5-6----------
G|--2-4-5-------------5s7------------------5s7-5h3s5
D|--------------------------------------------------
A|--------------------------------------------------
E|--------------------------------------------------

F                                 G
sé lo que es la gracia y el perdón,
F                             G
su misericordia es mi canción


Aqui lleva de nuevo un rasgueo leve...

A                     E             D
Y he despertado en el redil, no sé como,
A                   E           D
entre algodones y cuidados del Pastor,
Bm                             E
y antes de poder hablar de mi pasado,
F                               E
me atraviesan Sus palabras y Su voz :

A                      E                 D
Que se alegra tanto de que haya vuelto a casa,
A                   E                    D
que no piense, que descanse, que no pasa nada,
Bm                       E
y dormido en su regazo, lo he sabido,
E                  D           A
tengo Vida, tengo Dueño y soy querido.


ACORDES RAROS

G5/D  A7sus4

E-3   E-x
B-3   B-3
G-0   G-x
D-x   D-2
A-x
E-x


Saludos a todos Sociedad de Jovenes Servidores de Cristo
Ministerio de Iglesias Cristianas Evangélicas
"Filadelfia del Dios Viviente"
Ecuador

KyRiOs
Suggest correction
Give kudos to tab author, rate the tab!
1 2 3 4 5
comments
print report bad tab
guest
You may want to rate the tab now too:
select rating
Wanna post a correction for this tab? Suggest correction