Oops, an error
Loading. Please wait.

El Milagro Tab

version 2
version 2

Whole song

53 views 1 this week
no commentswrite comment
1 2 3 4 5
3 more votes to show rating
add to favorites
launch autoscroll
font size
0
reset
how to read this tab
guitar tuner
×
Best way to learn
"El Milagro"
Autoscroll
slow
fast
+/-
esc
set tempo
stop
Ahora envio esta corrección porque la parte de la tablatura, a
pesar de que sonaba bien la sentia muy simple, asi que le puse un
poco de acompañamiento, por otro lado, la segunda parte de la tab,
la trabaje sobre los mismos trastes para tocarla mas fácil pero en
escencia es lo mismo... Pronto enviaré otra corrección para tocar
la segunda parte de la tab también a dos notas.. xD

Espero que les guste

Intro
e--------------0--0--0--1--------3--1--0--1--0--0--0--1---------|
B-----0--1--3--1--1--1--3--3-----5--4--1--3--1--1--1--3--3------|
G--2--0--2--4--------------4-----------------------------4------|
D--2------------------------------------------------------------|
A---------------------------------------------------------------|
E---------------------------------------------------------------|

e--10-7-8----7----------------------------------7--3------------|
B---------10---8-10----8---------------------10----0------------|
G-------------------10---9-7-----------------------0------------|
D----------------------------9-10-7-9----7----------------------|
A-------------------------------------10---8--------------------|
E--------------------------------------------------3------------|

I Estrofa
Am                 Em                 F
Aún no puedo asimilar lo que me ha sucedido,
Am                 Em                F             A
el milagro más glorioso que yo he vivido,
Dm                 G                  Am      E
que después de malgastar lo que no era mío
F                   E
no he tenido que pagar ;
Am                    Em             F
traicioné a aquel que me perdonó la vida,
Am                Em            F        A
humillé al que curó toda mi herida,
Dm                  G             Am      A
y en mi huida coseché lo que merecía,
         Dm            G
y desvanecido en mi dolor
           Am                 E7
en algún momento Él me encontró,

Coro
         A               E            D
Y he despertado en el redil, no sé como,
         A             E           D
entre algodones y cuidados del Pastor,
        F#m           C#m          Bm    D
y antes de poder hablar de mi pasado,
       Bm             D          E
me atraviesan Sus palabras y Su voz
A                    E               D
Que se alegra tanto de que haya vuelto a casa,
A                   E                  D
que no piense, que descanse, que no pasa nada,
    F#m           C#m             Bm       D
y dormido en su regazo, lo he sabido,
      Bm           E           A
tengo Vida, tengo Dueño y soy querido.

e--------------0--0--0--1--------3--1--0--1--0--0--0--1---------|
B-----0--1--3--1--1--1--3--3-----5--4--1--3--1--1--1--3--3------|
G--2--0--2--4--------------4-----------------------------4------|
D--2------------------------------------------------------------|
A---------------------------------------------------------------|
E---------------------------------------------------------------|

e--10-7-8----7----------------------------------7--3------------|
B---------10---8-10----8---------------------10----0------------|
G-------------------10---9-7-----------------------0------------|
D----------------------------9-10-7-9----7----------------------|
A-------------------------------------10---8--------------------|
E--------------------------------------------------3------------|

II Estrofa
(Igual que la primera estrofa)
He aprendido la lección del amor divino,
que me transformó, cruzándose en mi camino,
y que dio a mi vida entera otro sentido,
otra meta y otro fin ;
yo no sé lo que traerá para mi el mañana,
pero sé que nunca se apagará su llama,
salga el sol por donde quiera, Él me ama,
sé lo que es la gracia y el perdón,
su misericordia es mi canción... (Coro)

Último Coro sube 1/2 tono,
A=A#, E=F, D=D#, F#m=Gm, C#m=Dm, Bm=Cm

e--------------1--1--1--2--------4--2--1--2--1--1--1--2---------|
B-----1--2--4--2--2--2--4--4-----6--4--2--4--2--2--2--4--4------|
G--3--1--3--5--------------5-----------------------------5------|
D--3------------------------------------------------------------|
A---------------------------------------------------------------|
E---------------------------------------------------------------|

e--8--9--6--8--10-----------------------------------------------|
B---------------------------------------------------------------|
G--8--9--6--8--12-----------------------------------------------|
D---------------------------------------------------------------|
A---------------------------------------------------------------|
E---------------------------------------------------------------|

Que Dios los bendiga a todos.. Att Danfly, cualquier duda escriban
al correo
Suggest correction
Give kudos to tab author, rate the tab!
1 2 3 4 5
comments
print report bad tab
guest
You may want to rate the tab now too:
select rating
Wanna post a correction for this tab? Suggest correction