Oops, an error
Loading. Please wait.

El Milagro Tab

version 3
version 3

Whole song

35 views 1 this week
no commentswrite comment
1 2 3 4 5
3 more votes to show rating
add to favorites
×
Save as Personal and add changes to this tab that will be seen only by you. Learn more ›
×
You can save this tab as Personal to edit and correct it or add notes. All changes will be seen only by you. Learn more »
save as personal
new!
launch autoscroll
font size
0
reset
how to read this tab
guitar tuner
Autoscroll
slow
fast
+/-
esc
set tempo
stop
Aca les envio la correccion e este hermoso tema q ah sido
de bendicion para mi vida...

Intro
e---------------------------3------------------------------------|
B----0-1-3-3´5--5-5-6--1´3----6-5-3-3´5--5-5-6--1´3--1-0-1--3´5-3
G--2-------------------------------------------------------|
D--------------------------------------------------------------|
A---------------------------------------------------------------|
E---------------------------------------------------------------|

(´)= arrastrar

I Estrofa
Am                 G*                 F*
Aún no puedo asimilar lo que me ha sucedido,
Am                  G*               F*           A*
el milagro más glorioso que yo he vivido,
Dm                                   Am
que después de malgastar lo que no era mío
F                   E
no he tenido que pagar ;
Am                    G*             F*
traicioné a aquel que me perdonó la vida,
Am                G*            F*        A
humillé al que curó toda mi herida,
Dm                               Am
y en mi huida coseché lo que merecía,
         Am            G*
y desvanecido en mi dolor
           Am                 E
en algún momento Él me encontró,

Coro
         A               E            F#m
Y he despertado en el redil, no sé como,
         A             E           F#m
entre algodones y cuidados del Pastor,
        D          Dm        Am
y antes de poder hablar de mi pasado,
       G                       E        E7
me atraviesan Sus palabras y Su voz
A                    E               F#m
Que se alegra tanto de que haya vuelto a casa,
A                   E                   F#m
que no piense, que descanse, que no pasa nada,
    D         Dm             Am
y dormido en su regazo, lo he sabido,
     F                G       (arranca el punteo o E7 para volver al coro)
tengo Vida, tengo Dueño y soy querido.

e---------------------------3--------------------------------------3´5-3-|
B----0-1-3-3´5--5-5-6--1´3----6-5-3-3´5--5-5-6--1´3--1-0-1--3´5-3--------|
G--2-------------------------------------------------------|
D--------------------------------------------------------------|
A---------------------------------------------------------------|
E---------------------------------------------------------------|

II Estrofa
(Igual que la primera estrofa)
He aprendido la lección del amor divino,
que me transformó, cruzándose en mi camino,
y que dio a mi vida entera otro sentido,
otra meta y otro fin ;
yo no sé lo que traerá para mi el mañana,
pero sé que nunca se apagará su llama,
salga el sol por donde quiera, Él me ama,
sé lo que es la gracia y el perdón,
su misericordia es mi canción... (Coro)
e---------------------------3--------------------------------------3´5-3-|
B----0-1-3-3´5--5-5-6--1´3----6-5-3-3´5--5-5-6--1´3--1-0-1--3´5-3--------|
G--2-------------------------------------------------------|
D--------------------------------------------------------------|
A---------------------------------------------------------------|
E---------------------------------------------------------------|

G*=                  F*=
e---0-----             E---0---|
B---0-----             B---1---|
G---0-----             G---2---|
D---0-----             D---3---|
A---2----              A---3---|
E---3-----             E-------|

Le quiero dedicar esta cancion a mi uña y carne, a la mujer de mi vida
A quien el Señor puso en mi camino para hacerme mas feliz cada dia.
TE AMOO PRI.
Suggest correction
Give kudos to tab author, rate the tab!
1 2 3 4 5
comments
print report bad tab
guest
Wanna post a correction for this tab? Suggest correction