Oops, an error
Loading. Please wait.

Al Rey Bass Tab

107 views 1 this week
no commentswrite comment
1 2 3 4 5
3 more votes to show rating
add to favorites
launch autoscroll
font size
0
reset
guitar tuner
Autoscroll
slow
fast
+/-
esc
set tempo
stop
Help us to improve Ultimate-Guitar.com Take our survey!
×
:Intro:(Bateria)
:Intro:(Bateria e Instrumentos)
:Intro:(Golpes antes de entrar a la cancion)

G]:------------:
D]:------------:
A]:------------:
E]:3-3---3--3-3:

:Intro:

G]:-------------:------------:-----------:-------5-3--:
D]:--5--------5-:----3-3----3:1---1-1---1:---4-7-----7:
A]:---------5---:--3------3--:--1-----1--:5-----------:
E]:3---3-3------:1-----------:-----------:------------:

G]:-------------:------------:------------:------5-3--:
D]:5-----------5:3----------3:1---1-1----1:--4-7-----7:
A]:--5-------5--:--3------3--:--1------1--:5----------:
E]:----3-3------:----1-1-----:------------:-----------:

:Coro:

Al Rey, Hossana!...

G]:-------------:------------:------------:-----------:
D]:5-----------5:3----------3:1---1-1----1:-----------:
A]:--5-------5--:--3------3--:--1------1--:5-----3-1--:
E]:----3-3------:----1-1-----:------------:--2-5-----5:

Al Rey, Hossana!...

G]:------------:------------:------------:------------:
D]:----5-5----5:-----------3:1---1-1----1:------------:
A]:--5------5--:--3---------:--1-----1---:5-5---5-5--5:
E]:3-----------:1---1-1-----:------------:----5----5--:

:Estrofa 1:

Me ha enseñado su...

G]:-------------:------------:------------:-----------:
D]:5-----------5:3----------3:8----------8:-----------:
A]:--5-------5--:--3------3--:--8------8--:5---5-5---5:
E]:----3-3------:----1-1-----:----6-------:--5-----5--:

realeza, de su salvacion...

G]:------------:-----------:------------:---------:
D]:5---5--3-3--:1-1--------:------------:---------:
A]:--5--------3:------1-1--:5-5----5-5--:5--------:
E]:------------:----1-----1:-----5-----5:---------:

Ha cambiado mi tristeza...

G]:-------------:------------:-----------:-------------:
D]:5-----------5:3----------3:-----------:-------------:
A]:--5-------5--:--3------3--:1-1---1-1--:5-5---5-5---5:
E]:----3-3------:----1-1-----:----1-----1:----5-----5--:

belleza de su redencion...

G]:------------:-----------:------------:--------------:
D]:5---5--3-3--:1-1--------:------------:--------------:
A]:--5--------3:------1-1--:5-5----5-5--:5-5-5-5-3-5---:
E]:------------:----1-----1:-----5-----5:--------------:

:Coro:
:Estrofa:
:Coro:
:Pre-Intermedio:

Yo me sombro...

G]:----5-5----5--:--------------:-----------:-------3--:
D]:--5----------5:-----5-5---5--:-----------:----------:
A]:3-------------:--5----------5:5---5-5---5:----1----1:
E]:--------------:3-------------:--5-----5--:3-5-------:

No hay nadie...

G]:-----5-5---5--:---------------:-----------:------------:
D]:--5----------5:-----5-5----5--:-----------:------------:
A]:3-------------:--5-----------5:--5-----5--:5-5----5-5-5:
E]:--------------:3--------------:5---5-5---5:------------:

Rey...

G]:-----------:
D]:-----------:
A]:5-5-5-5-5-5:
E]:-----------:

:Intermedio:(Solo de Guitarra)

                  ( x 3 veces )
G]:-----------:----------:-----------:----------:
D]:-----------:----------:-----------:----------:
A]:5-3-5-6-5-3:5-3-5-----:5-3-5-6-5-3:----------:
E]:-----------:----------:-----------:3-1-3-----:

                   ( a la 4º vez )
G]:-----------:----------:-----------:----------:
D]:-----------:----------:-----------:----------:
A]:5-3-5-6-5-3:5-3-5-----:5-3-5-6-5-3:-----1----:
E]:-----------:----------:-----------:3-1------3:

:Coro:

Al Rey!...

G]:------------:
D]:------------:
A]:------------:
E]:3-3-1-3-----:

:Coro:(Varias veces)
:Final:

Aleluya!...

G]:-----------------:----------------:----------:
D]:-----------------:-------------2-3:----------:
A]:5-5-5-5---5-5-5-5:-------3-5-6----:----------:
E]:-----------------:----------------:3-3-3-3---:


Gracias a Dios q se permitio poder sacar esta cancion ya q sin El, mi
gran Rey NO SOY NADA!!!!.
Agradezco los correos de las personas q me piden canciones, ademas les informo
q no me escriban a Hotmail, ya q he creado una cuenta en atame:
mi correo es:
joelito_strings6_bajista@

dejen ahi comentarios de la cancion y si hay algo mal no me rajen tanto jejeje
un beso a todas en especial a chicas bonitas y un abrazo a todos.

Dios me los Bendiga
Suggest correction
Give kudos to tab author, rate the tab!
1 2 3 4 5
comments
print report bad tab
guest
You may want to rate the tab now too:
select rating
Wanna post a correction for this tab? Suggest correction