Oops, an error
Loading. Please wait.

Al Rey Tab

version 2
version 2

Whole song

120 views 1 this week
no commentswrite comment
1 2 3 4 5
3 more votes to show rating
add to favorites
launch autoscroll
font size
0
reset
how to read this tab
guitar tuner
×
Best way to learn
"Al Rey"
Autoscroll
slow
fast
+/-
esc
set tempo
stop
  3:50

e|---------------------------------------------------------------|
B|---------------------------------------------------------------|
G|-7--5--7?7/87--5--7--5?7~---7--5--7?7/87--5------------------|
D|------------------------------------------------5?-3--5~-------|
A|---------------------------------------------------------------|
E|---------------------------------------------------------------|


e|---------------------------------------------------------------|
B|---------------------------------------------------------------|
G|-7--5--7?7/87--5--7--5?7~-7+trem--7--5--7?7/87--5------------|
D|-------------------------------------------------------5?-3--5~|
A|---------------------------------------------------------------|
E|---------------------------------------------------------------|

e|---------------------------------------------------------------|
B|-15~-----------------------------------------------------------|
G|--------17-17~---15-17-15-14-15-14-12-14~--12h14h15p14p12-12h14|
D|---------------------------------------------------------------|
A|---------------------------------------------------------------|
E|---------------------------------------------------------------|

e|---------------------------------------------------------------|
B|---------------------------------------------------------------|
G|h15p14p12-12h14h15p14p12~--5+tremtrem--------------------------|
D|---------------------------------------------------------------|
A|---------------------------------------------------------------|
E|---------------------------------------------------------------|

e|---------------15-17-18-17h18p17-15h17p15-14h15p14-11h14p11----|
B|-15~--15-16-18----------------------------------------------15~|
G|---------------------------------------------------------------|
D|---------------------------------------------------------------|
A|---------------------------------------------------------------|
E|---------------------------------------------------------------|

e|--------------------------------------15^r-15-15~--------------|
B|---------------------------------------------------------------|
G|---------------------------------------------------------------|
D|---------------------------------------------------------------|
A|---------------------------------------------------------------|
E|---------------------------------------------------------------|


   4:37

e|--151515-17-17/18-17-151515-13---------------------------------|
B|----------------------------------18-15-18^1/2~-----------------|
G|--------------------------------15-----------------------------|
D|---------------------------------------------------------------|
A|---------------------------------------------------------------|
E|---------------------------------------------------------------|
    4:45
e|---------------------------------------------------------------|
B|-----18----15----13----15--------------------------------------|
G|--0x----0x----0x----0x-----------------------------------------|
D|--15----12----10----12-----------------------------------------|
A|---------------------------------------------------------------|
E|---------------------------------------------------------------|

    4:49
e|---------------------------------------------------------------|
B|--------6/8~---------------------------------------------------|
G|--3h5/7--------------------------------------------------------|
D|---------------------------------------------------------------|
A|---------------------------------------------------------------|
E|---------------------------------------------------------------|

    4:53
e|--202020~--17h18-17-15-18p17p15--------------------------------|
B|-----------------------------------18-15-18^~-18-15---18-------|
G|----------------------------------------------------17?-17-15-17~|
D|---------------------------------------------------------------|
A|---------------------------------------------------------------|
E|---------------------------------------------------------------|


e|------15h18p15---------15h18p15--------------------------------|
B|----16--------16-----16--------16------------------------------|
G|--15------------15-15------------15----------------------------|
D|---------------------------------------------------------------|
A|---------------------------------------------------------------|
E|---------------------------------------------------------------|

   5:05
e|-----------10-10-10-10--10-10-10-10?10-10-10-10?11-11-11--14-|
B|---------------------------------------------------------------|
G|--5^-5-3-5~----------------------------------------------------|
D|---------------------------------------------------------------|
A|---------------------------------------------------------------|
E|---------------------------------------------------------------|

e|14-14--15-15-15-14~--------------------------------------------|
B|---------------------------------------------------------------|
G|---------------------------------------------------------------|
D|---------------------------------------------------------------|
A|---------------------------------------------------------------|
E|---------------------------------------------------------------|


| ^      bend (1 tone)
| ^1/2      bend (1/2 tone)
| r      bend release
| /      slide up
|       slide down
| h      hammer-on
| p      pull-off
| ~      vibrato
| +      harmonic
| trem   Tremolo bar
| x      Dead note

En las otras partes donde cantan el estribillo puedes tocar
la pentatonica de Sol menor; puse apenas las partes mas
importantes del solo y el final.

consultas: nickolasito@
Suggest correction
Give kudos to tab author, rate the tab!
1 2 3 4 5
comments
print report bad tab
guest
You may want to rate the tab now too:
select rating
Wanna post a correction for this tab? Suggest correction