Oops, an error
Loading. Please wait.

Al Rey Tab

version 3
version 3

Whole song

140 views 1 this week
no commentswrite comment
1 2 3 4 5
3 more votes to show rating
add to favorites
launch autoscroll
font size
0
reset
how to read this tab
guitar tuner
×
Best way to learn
"Al Rey"
Autoscroll
slow
fast
+/-
esc
set tempo
stop
Este toque es como un poco Folk??
la verdad no lose pero tienen que escucharlo bn.
 Es una de mis favoritas?

Intro: (Gm  F  Eb  D) X2

Este es el punteo del intro de la guitarra acústica,
 no se bien si suena igual pero es parecido escuchen
es solo una idea?

E|--------------8-10--11-10-8----------8-----------------------------|
B|------8-10-11---------------11-10-11---11-10-8-10-11-10-8----8-----|
G|-8-10-----------------------------------------------------10-------|
D|-------------------------------------------------------------------|
A|-------------------------------------------------------------------|
E|-------------------------------------------------------------------|


E|------------------10-10-10-10-11-13-15-15-15-----15-15-15--13-13-13|
B|-8-11-10--8-11-10--------------------------------------------------|
G|-------------------------------------------------------------------|
D|-------------------------------------------------------------------|
A|-------------------------------------------------------------------|
E|-------------------------------------------------------------------|


E|-11-11-11--10-10-10--8---------------------------------------------|
B|-----------------------11-8--8-10-11-10-8----8--8-11-10-8----8-----|
G|------------------------------------------10--------------10-------|
D|-------------------------------------------------------------------|
A|-------------------------------------------------------------------|
E|-------------------------------------------------------------------|


   Gm     F
Al rey, hosanna
   Eb      D
Al rey, aleluya(X2)

                        Gm
  Me ha enseñado su grandeza
F                     Bb
  Me ha mostrado su belleza
D                    Gm
  Me vistió de su realeza
     F       Bb    Eb      D
  De su salvación, yo cantare.

                     Gm
  Ha cambiado mi tristeza
F                Bb
  Ha ungido mi cabeza
D                   Gm
  Me cubrió de su belleza
     F       Bb    Eb        D
  De su redención, yo cantare


   Gm     F
Al rey, hosanna
   Eb      D
Al rey, aleluya(X2)


PUENTE:
       Cm             Gm
Yo me asombro, me maravillo
    D                   Gm    Bb
Y derramo mi canto en honor a el
       Cm           Gm
No hay nadie más glorioso
       A            D
Tan hermoso como mi rey


SOLO: la acústica hace estos acordes: ///D-Eb-D    D-Eb~Gm///


CORO:   Gm     F
Al rey, hosanna
   Eb      D
Al rey, aleluya(X2)
Suggest correction
Give kudos to tab author, rate the tab!
1 2 3 4 5
comments
print report bad tab
guest
You may want to rate the tab now too:
select rating
Wanna post a correction for this tab? Suggest correction