Oops, an error
Loading. Please wait.

Alabanza Y Honor Tab

65 views 1 this week
no commentswrite comment
1 2 3 4 5
3 more votes to show rating
add to favorites
launch autoscroll
font size
0
reset
how to read this tab
guitar tuner
×
Best way to learn
"Alabanza Y Honor"
Autoscroll
slow
fast
+/-
esc
set tempo
stop
Aqui les va el verdadero solo de (alavanza y honor)
disfrutenlo

E------------------------------------------
B------------------------------------------
G---------2--4-s-6-6---2-h-4-s-7--6--4-4---
D--2-h-4-----------------------------------
A------------------------------------------
E------------------------------------------


E---------5--7-s-9-9---5-h-7-s-10--9--5-h7---
B--5-h-7-------------------------------------
G--------------------------------------------
D--------------------------------------------
A--------------------------------------------
E--------------------------------------------


E-----16h17-16-14----12-12--9-10-h-12--7-----
B--------------------------------------------
G--------------------------------------------
D--------------------------------------------
A--------------------------------------------
E--------------------------------------------


E--12--14s17----------------------------6h14--17-19-21-
B--------------------------------16h14-----------------
G--------------------------16h14-----------------------
D--------------------16h14-----------------------------
A--------------16h14-----------------------------------
E------------------------------------------------------


la (h) se ignifica Golpeo o hamer la (s) deslisar
disfrutenla Que Dios Les Bendiga

Un Saludo Ala Iglesia (Cosecha Maranatha) en Longmont Colorado
Dios Les Bendiga
Suggest correction
Give kudos to tab author, rate the tab!
1 2 3 4 5
comments
print report bad tab
guest
You may want to rate the tab now too:
select rating
Wanna post a correction for this tab? Suggest correction