Oops, an error
Loading. Please wait.

Aleluya Bass Tab

85 views 3 this week
no commentswrite comment
1 2 3 4 5
3 more votes to show rating
add to favorites
launch autoscroll
font size
0
reset
guitar tuner
Autoscroll
slow
fast
+/-
esc
set tempo
stop
este es la primera parte
E|--------|-----|-3-1-|---1--|
A|--1---3-|-5-3-|-----|-3----|
D|----3---|-----|-----|------|
G|--------|-----|-----|------|

aca cuando sube de tono
E|--------|-----|-5-3-|---3--|
A|--3---5-|-7-5-|-----|-5----|
D|----5---|-----|-----|------|
G|--------|-----|-----|------|

y esto es durante los solos
E|------3---|---------|--------|------3-|
A|--3-------|-5h7-7-5-|--5-33--|--3--3--|
D|----5---5-|---------|------5-|-5-5----|
G|----------|---------|-7------|--------|

E|---------|--------|---33-|-----------|
A|------3--|------3-|-5----|--5--------|
D|---5---5-|--5--5--|--5---|-5-5-5h7-5-|
G|--5-5----|-5-5----|------|-----------|


atte. miauricio gatolar
Suggest correction
Give kudos to tab author, rate the tab!
1 2 3 4 5
comments
print report bad tab
guest
You may want to rate the tab now too:
select rating
Wanna post a correction for this tab? Suggest correction