Oops, an error
Loading. Please wait.

Con Tu Sangre Bass

64 views 1 this week
no commentswrite comment
1 2 3 4 5
3 more votes to show rating
add to favorites
launch autoscroll
font size
0
reset
guitar tuner
×
Best way to learn
"Con Tu Sangre"
Autoscroll
slow
fast
+/-
esc
set tempo
stop
:Intro de Piano:
:Piano e Insttumentos:

G] :---------------:
D] :---------------:
A] :---2-5-7-------:
E] :--------3-5----:

:Estrofa:
:Entrada del Bajo en Estrofa:

                Nos has hecho Reyes....
G] :---------------:---------------:---------------:---------------:
D] :---------------:---------------:---------------:---------------:
A] :------------12-:----5--5-5-----:-----5--5-5----:----5--5-5-----:
E] :---------------:---------------:---------------:---------------:

                 Y Reinaremos...
G] :---------------:---------------:---------------:--------------:------------:
D] :---------------:---------------:---------------:--------------:------------:
A] :----5--5-5-----:---------------:---------------:--------------:-5---------5:
E] :--------------7:-----5--5-5----:--5--5-5------2:-3---3-5------:------------:

:Coro:

      E  -  xal   -  tad ...
G] :---------------:---------------:-----------------:--------------:
D] :---------------:---------------:-----------------:--------------:
A] :---------------:---------------:----7------------:--------------:
E] :--2------3-----:--5---5-5------:5----5----0-2--2-:3---3-3----3--:

                               A - do -  rad ...
G] :---------------:---------------:-----------------:----------------:
D] :---------------:---------------:-----------------:----------------:
A] :-5----5-5---5--:-5---5-5-------:---------------7-:----------------:
E] :-------------5-:----------0-2-3:-5----5-5--------:-5--5-5--0-2--2-:

                                            A -  do -   rad ...
G] :---------------:---------------:-------------------:--------------:
D] :---------------:---------------:-------------------:--------------:
A] :---------------:-5---5-5-------:-5--5-5------------:------------7-:
E] :--3---3-3------:-------------5-:--------0-2--2-3--3:-5---5-5------:

G] :---------------:---------------:-----------------:
D] :---------------:---------------:-----------------:
A] :---------------:---------------:-----------------:
E] :--3---3-3-----3:-2---2-2------2:5----5-5-------5-:

:Vuelve a entrada de Piano:
:Piano e Instrumentos:
:Estrofa:
:Despues de la Frase 'y nacion':

G] :-------------6-7--:-9---9-9--7-----:
D] :-----------7------:----------------:
A] :-5---5-5----------:--------------0-:
E] :------------------:----------------:

:Coro:
:Intermedio:
                                     solo a EL ...
G] :-----------------:---------------------:-----------------:
D] :-----------------:-------7-------------:-----------------:
A] :-2--2-----------6:-----7-----5-----5---:-----------------:
E] :------5-4--4-4---:--5-----------5-----5:3----3-2--4-6----:


G] :-----------------:---------------------:
D] :-----------------:-------7-------------:
A] :-2--2-----------6:-----7-----5-----5---:
E] :------5-4--4-4---:--5-----------5-----5:

:Sube Medio Tono:

                E - xal- tad
G] :-----------------:---------------------:
D] :------5-3--------:-----------5-3-------:
A] :-----------6-----:---------------3-----:
E] :-3------------4--:------------------3-1:

:Vuelvan a la Estrofa subiendolo a todo medio tono:
:Final:

    Cordero de Dios ...              Cordero de Dios...
G] :-----------------:----------------:-----------------:------------:
D] :-----------------:----------------:-----------------:-------6-5--:
A] :-1------1-1------:-3--------------:-1----1----------:-----6------:
E] :-----------------:-----5---------5:----------3-----3:-5----------:

    Cordero de Dios......
G] :-----------------:--------------:---------:
D] :-----------------:-6--5---------:---------:
A] :-1---------------:---------8----:----6----:
E] :-----------------:--------------:---------:


Bueno gracias le doy a mi Dios por haberme permitido hacer esta tablatura 
y asi poder rendirle un HOMENAJE A JESUS
Un saludo a toda la iglesia de Catedral de Fe
Cualquier consulta escribanme ....
QDTBM
Suggest correction
Give kudos to tab author, rate the tab!
1 2 3 4 5
comments
print report bad tab
guest
You may want to rate the tab now too:
select rating
Wanna post a correction for this tab? Suggest correction