Oops, an error
Loading. Please wait.

Danzare, Cantare Tab

46 views 1 this week
no commentswrite comment
1 2 3 4 5
3 more votes to show rating
add to favorites
launch autoscroll
font size
0
reset
how to read this tab
guitar tuner
×
Best way to learn
"Danzare, Cantare"
Autoscroll
slow
fast
+/-
esc
set tempo
stop
Otra canción para el Señor, quien me ayuda a sacar cada vez mas
temas para Él. Gracias Señor.

F# - C# -  D#m - B - F# - C#m - E - B

ESTRIBILLO
F#m                        E
¿A donde iré sin ti Señor?
------------------------*---------------
--9-9-9--10-12--10--9--7--5-----5-2-3-
---------------------------------------
---------------------------------------
---------------------------------------
---------------------------------------

    Dmaj7                                        E
Si solo Tu Jesús tienes palabras de vida
------------------------9---------------
--9-9--12-9-12----12-10---10-12-9--------------
-----------------------------------11-9-11--
---------------------------------------
---------------------------------------
---------------------------------------

        F#m
Si  subiera al monte más alto
      E
O bajara hasta el fondo del mar
-9-9--7-7--5-5--4-4-----2------------2-----------
--------------------------5-3--2-3-5---5-3-2---
---------------------------------------
---------------------------------------
---------------------------------------
---------------------------------------

Dmaj7                                            E
¿Quien me dará quien me mostrara tal amor?

---------------------------------------
---5-3-2-----2-2----------------------------
---------------------------------------
---------------------------------------
---------------------------------------
---------------------------------------


CORO
F#            C#            D#m           B      F#
Danzare, cantare derramare mi corazón delante de ti
        C#m           E       B
Es el río de tu amor

F#           C#            D#m           B       F#
Danzare, cantare derramare mi corazón delante de ti
        C#m           E       B
Es el río de tu amor

ESTRIBILLO
F#m                        E
¿A donde iré sin ti Señor?
-----------------7-9-12-10-9-7-----------7-----5-4-7-5-4---5---------
-9999999----9-10---------------10-9-9-10-----------------7------
---------------------------------------
---------------------------------------
---------------------------------------
---------------------------------------

   Dmaj7                                        E
Si solo Tu Jesús tienes palabras de vida
----------7-9-10-12-10-9-7----7-------------------
---7-9-10------------------10---10-9-5-----------
---------------------------------------
---------------------------------------
---------------------------------------
---------------------------------------

        F#m
Si  subiera al monte mas alto

E
O bajara hasta el fondo del mar                 **
--99999999--9-9-10-12-10-9-7-5-4-4-5-7----5-4-7/5-4-5-
---------------------------------------
---------------------------------------
---------------------------------------
---------------------------------------
---------------------------------------

Dmaj7                                            E
¿Quien me dará quien me mostrara tal amor?
---------------------------------------
---------------10-12-----------------------
---------------------------------------
---------------------------------------
---------------------------------------
---------------------------------------


PUENTE
            D#m        D#maj7    D#m7                  G#m
Tantos años yo  perdí sin el      amor que no pude ver
          G#m7                            G#m7/F#
Hasta que encontré aquí la presencia de Dios
            C#
Aquí en el río


 *Esa parte escúchenla porque no se bien que hace ** ahí tampoco, jej. Esas
son algunas de las notas de esa partecita, faltan algunas, creo

 Las dudas y los errores,por favor, háganmelas saber, si? Gracias
Suggest correction
Give kudos to tab author, rate the tab!
1 2 3 4 5
comments
print report bad tab
guest
You may want to rate the tab now too:
select rating
Wanna post a correction for this tab? Suggest correction