Oops, an error
Loading. Please wait.

Derrama De Tu Fuego Bass

70 views 1 this week
no commentswrite comment
1 2 3 4 5
3 more votes to show rating
add to favorites
launch autoscroll
font size
0
reset
guitar tuner
×
Best way to learn
"Derrama De Tu Fuego"
Autoscroll
slow
fast
+/-
esc
set tempo
stop
Bendiciones a todos? este Tab es buenísimo,
trate de sacarlo lo más original a la canción,
disculpen cualquier error. Todo sea para la Gloria de Nuestro DIOS?
 Ojala les sirve y escuchen bien la canción?
Esta es la base sencilla?

:ESTROFA:                     :CORO:
E------------------1-1|       E-----------------------|
A-3-3-3?-3---3-1-1----|       A-3-3-3--3---3----------|
D----------1----------|       D----------1---1-1-3---3|
G---------------------|       G--------------------1--|

La siguiente es la base pero con los arreglos?

(Después de la Intro la primer vez que canta la estrofa no hay bajo,
 (donde la batería marca con el bombo) a partir de la segunda vez,
cuando la batería ya entra con el ritmo hay entra el bajo)

:INTRO:                    (x2):ESTROFA:                 (x4)
E--------------------------1-1| ---------------------------1-1|
A-3?1-3h?1-3h-3---3-1-1-3-----| -s3?1-3h?1-3h-3---3-1-1-3-----|
D---------------1-------------| ----------------1-------------|
G-----------------------------| ------------------------------|

:CORO:                     (x3) Derrama de tu gloria?
E------------------------------| --------------------------|
A-3?1-3h?1-3h-3---3------------| -3?1-3h?1-3h-3---3--------|
D---------------1---1-1-3-3--3-| ----------------1---1-1-3-|
G--------------------------1---| --------------------------|

Anhelamos más?             (x4)
E--------------------------1-1|
A-3?1-3h?1-3h-3---3-1-1-3-----|
D---------------1-------------|
G-----------------------------|

:INTRO:(x4)
:CORO:(Termina en C)

:SOLO:
E---------------|
A-3s-10-8-6s-10s|
D---------------|
G---------------|
                                                     (x2)
E-------------------------------------------------------|
A-3-3-3-1---3-1-3-3-------3-1-3-3-3-1---3-1-3----------1|
D---------1---------0-1-0-------------1-------1---------|
G-----------------------------------------------0-3-2-0-|

E------------------||
A-3-----6?-3------6||
D---5-3------5-3---||
G------------------||

:CORO:
:INTRO:(x2)(Termina en C)
Suggest correction
Give kudos to tab author, rate the tab!
1 2 3 4 5
comments
print report bad tab
guest
You may want to rate the tab now too:
select rating
Wanna post a correction for this tab? Suggest correction