Oops, an error
Loading. Please wait.

Derrama De Tu Fuego Tab

119 views 1 this week
no commentswrite comment
1 2 3 4 5
3 more votes to show rating
add to favorites
launch autoscroll
font size
0
reset
how to read this tab
guitar tuner
×
Best way to learn
"Derrama De Tu Fuego"
Autoscroll
slow
fast
+/-
esc
set tempo
stop
      Cm       Bb     Fm  Cm         Bb     Fm
// Grande y poderoso eres tu mi Dios,

       Cm       Bb     Fm  Cm         Bb     Fm
    Fuerte y poderoso eres tú mi Rey.  //

        Cm              Eb        F
//  Derrama de tu fuego sobrenatural
        Cm                 Eb           F
     Derrama de tu gloria sobre este lugar  //

         Cm           Bb    Fm
     Anhelamos más de ti Señor
         Cm           Bb    Fm
     Anhelamos más de tu amor
         Cm           Bb    Fm
     Anhelamos más de ti Señor
                      Cm    Bb Fm    Cm
     Derrama de tu fuego hoy Señor.


PUNTEO?

 E|----------------|------------------|
 A|--3-3-3-1-6-3---|--1-3-3-5-6-5-3---|
 D|----------------|------------------|
 G|----------------|------------------|
 B|----------------|------------------|
 e|----------------|------------------|

 E|----------------|-------------------|
 A|--1-3-3-3-1-6-3-|-1-3-6-------------|
 D|----------------|--------5--5/8-7-5-|
 G|----------------|-------------------|
 B|----------------|-------------------|
 e|----------------|-------------------|

lo anterior va x2

 E|--------------------------------|
 A|---------------6------------6--3|
 D|--3------5--3---------5--3------|
 G|----4/5----------4/5------------|
 B|--------------------------------|
 e|--------------------------------|
Suggest correction
Give kudos to tab author, rate the tab!
1 2 3 4 5
comments
print report bad tab
guest
You may want to rate the tab now too:
select rating
Wanna post a correction for this tab? Suggest correction