Oops, an error
Loading. Please wait.

Grandes Cosas Bass Tab

34 views 1 this week
no commentswrite comment
1 2 3 4 5
3 more votes to show rating
add to favorites
launch autoscroll
font size
0
reset
guitar tuner
×
Best way to learn
"Grandes Cosas"
Autoscroll
slow
fast
+/-
esc
set tempo
stop
GrAnDeS CoSaS

    G       C       G       C       G       C       G       C
E|--3-3--3-------|--3-3--3-------|--3-3--3-------|--3-3--3-------||
A|----------3-3--|----------3-3--|----------3-3--|----------3-3--||
D|---------------|---------------|---------------|---------------||
G|---------------|---------------|---------------|---------------||


::EsTroFa::

    G               C               G               C
E|--3-3--3--3----|---------------|--3-3--3--3----|---------------||
A|---------------|--3-3--3--3----|---------------|--3-3--3--3----||
D|---------------|---------------|---------------|---------------||
G|---------------|---------------|---------------|---------------||

    D               C
E|---------5-----|---------------||
A|-5--5--5---5-3-|--3-3--3--3-3--||    InTrO 2 primeros compases...
D|---------------|---------------||
G|---------------|---------------||


::CoRo::

    A        E      D       E
E|--5-5-5----0---|------------0-||
A|-------------7-|--5-5-5---7---||   2 VECES
D|---------------|--------------||
G|---------------|--------------||

Nos Alegraremos en el ......
    F#       E     D
E|--2-2--2---0---|------------0-|
A|-------------7-|-5-5--5---7---|
D|---------------|--------------|
G|---------------|--------------|

    F#       E     D
E|--2-2--2---0---|-----------------||
A|-------------7-|-5-5-5-5-5-7-7-7-||
D|---------------|-----------------||
G|---------------|-----------------||


::InTrO::  solo 2 compases
::EstrOfa::
::CoRo::

::InTeRmEdIo::
E|----10---------|----0---------|----2--------|----0---------||
A|---------------|--------------|-------------|--------------||  2 veces...
D|-0----------0--|-2----------2-|-4---------4-|-2----------2-||
G|---------------|--------------|-------------|--------------||


Nos alegraremos en Él...Si desean, pueden tocar con una pluma

::FiNaL::

E|--5-5--5-------|--5-5--5-------||
A|----------5-5--|----------5-5--||  Acaba en "A",
D|---------------|---------------||  pueden razcar con su quinta
G|---------------|---------------||

Salu2 a todo el pueblo d' CrIsTo...sigamos adelante su venida
ya se acerca, Podemos pasar aflicciones pero recuerden q' despues
nos espera la corona de la ViDa...

P.D. Salu2 a todos mis patas del .Divi. y a mis colegas:
(Davicho y Carlos) el "Crespo" y "El flaco".
Suggest correction
Give kudos to tab author, rate the tab!
1 2 3 4 5
comments
print report bad tab
guest
You may want to rate the tab now too:
select rating
Wanna post a correction for this tab? Suggest correction