Oops, an error
Loading. Please wait.

Has Cambiado Tab

46 views 1 this week
no commentswrite comment
1 2 3 4 5
3 more votes to show rating
add to favorites
launch autoscroll
font size
0
reset
how to read this tab
guitar tuner
×
Best way to learn
"Has Cambiado"
Autoscroll
slow
fast
+/-
esc
set tempo
stop
 Hola les dejo este tabs es del ultimo disco
 me quedo igual ojala les guste

 Intro.

 E-----------------------------------
 B-----------------------------------
 G-----------------------------------
 D--7-9-7s5-----5h7-5v--7-----5------
 A----------7-5----------5s4---4s3v--
 E-----------------------------------


 E---------------------------------------------
 B---------------------------------------------
 G---------------------------------------------
 D--7-9-7s5-----5h7-5v-7-----5-------7-----9---
 A----------7-5----------5s4---4s3-5---5-7-----
 E---------------------------------------------


 E-----------------------------------
 B-----------------------------------
 G-----------------------------------
 D--7-9-7s5-----5h7-5v--7-----5------
 A----------7-5----------5s4---4s3v--
 E-----------------------------------


 E----------------------
 B----------------------
 G----------------------
 D--7-9-7s5-----5h7-5v--
 A----------7-5---------
 E----------------------


 E-------------------------------------------------
 B--------------------------10-12-10s8----8s10-8v--
 G------------------------------------9-7----------
 D----------------------4-6------------------------
 A------5-----7-6-5-4-3-2-4------------------------
 E--3-5---5-7--------------------------------------


 E----------------
 B----------------
 G----------------
 D--4-6--9-7-6----
 A--2-4--7-5-4----
 E----------------

 Verso.

 Has cambiado mi lamento en baile
 E------------------------------------------------
 B------------------------10-12-10s8-----8s10-8v--
 G-----------------------------------9-7----------
 D---5-7------------------------------------------
 A---3-5------------------------------------------
 E------------------------------------------------

 Me ceñiste todo de alegria
 E-------------------------------------
 B-------------------------------------
 G-------------------------------------
 D--5-7--------------------9 7-12-11---
 A--3-5--------------------7-5-10-9----
 E-------------------------------------

 Has cambiado mi lamento en baile
 E------------------------------------------------
 B------------------------10-12-10s8-----8s10-8v--
 G-----------------------------------9-7----------
 D---5-7------------------------------------------
 A---3-5------------------------------------------
 E------------------------------------------------

 Me ceñiste todo de alegria
 E--------------------------
 B--------------------------
 G--------------------------
 D--5-7---------9-7-11-12---
 A--3-5---------7-5-9--10---
 E--------------------------

 Coro
 Por tanto a ti cantare
 E-----------------------
 B-----------------------
 G--7-7-7-7---7-7-7-7----
 D--5-5-5-5---7-7-7-7----
 A--5-5-5-5---5-5-5-5----
 E-----------------------

 Gloria mia, gloria mia
 E-----------------------
 B-----------------------
 G-----------------------
 D--7-7-7-7--5-5-5-7-----
 A--5-5-5-5--7-7-7-5-----
 E--5-5-5-5--7-7-7-5-----

 Y solo a ti danzare
 E-----------------------
 B-----------------------
 G--7-7-7-7---7-7-7-7----
 D--5-5-5-5---7-7-7-7----
 A--5-5-5-5---5-5-5-5----
 E-----------------------

 Gloria mia, gloria miaaa..
 E-------------------------
 B-------------------------
 G-5-5-5---------------4v--
 D-5-5-5---------------4v--
 A-3-3-3---------------2v--
 E-------------------------


 SE REPITE VERSO


 Coro
 Por tanto a ti cantare
 E-----------------------
 B-----------------------
 G--7-7-7-7---7-7-7-7----
 D--5-5-5-5---7-7-7-7----
 A--5-5-5-5---5-5-5-5----
 E-----------------------

 Gloria mia, gloria mia
 E-----------------------
 B-----------------------
 G--9-9-9-9--9-9-9-7-----
 D--7-7-7-7--9-9-9-7-----
 A--7-7-7-7--7-7-7-5-----
 E------------------------

 Y solo a ti danzare
 E-----------------------
 B-----------------------
 G--7-7-7-7---7-7-7-7----
 D--5-5-5-5---7-7-7-7----
 A--5-5-5-5---5-5-5-5----
 E-----------------------

 Gloria mia, gloria miaaa..
 E-------------------------
 B-------------------------
 G-5-5-5---------------4v--
 D-5-5-5---------------4v--
 A-3-3-3---------------2v--
 E-------------------------
Suggest correction
Give kudos to tab author, rate the tab!
1 2 3 4 5
comments
print report bad tab
guest
You may want to rate the tab now too:
select rating
Wanna post a correction for this tab? Suggest correction