Oops, an error
Loading. Please wait.

Luz De Mi Vida Bass Tab

19 views 1 this week
no commentswrite comment
1 2 3 4 5
3 more votes to show rating
add to favorites
launch autoscroll
font size
0
reset
guitar tuner
×
Best way to learn
"Luz De Mi Vida"
Autoscroll
slow
fast
+/-
esc
set tempo
stop
Esta linea de bajo esta en tono de D y va conforme a la de el CD.
Esta en 4/4.

G||-------------------|-------------------|-------------------|
D||-------------------|-------------------|-------------------|
A||-------------------|-------------------|-------------------|
E||-------------------|-------------------|-------------------|


  H        Q    E  E     W                   H        E  E  E  E
----------------------|-------------------|--------------------0--|
----------------------|--0----------------|--0--------L--2--4-----|
----------------2--3--|-------------------|-----------------------|
----------------------|-------------------|-----------------------|


  W                   H        Q    E  E     W
-------------------|----------------------|-------------------|
-------------------|----------------------|--0----------------|
--3----------------|--L--------L----2--3--|-------------------|
-------------------|----------------------|-------------------|


  H        E  E  E  E     W                   W
--------------------0--|-------------------|-------------------|
--L--------L--2--4-----|-------------------|--0----------------|
-----------------------|--3----------------|-------------------|
-----------------------|-------------------|-------------------|


  W
-------------------|-------------------|-------------------|
-------------------|-------------------|-------------------|
-------------------|-------------------|-------------------|
--0----------------|-------------------|-------------------|


-------------------|-------------------|-------------------|
-------------------|-------------------|-------------------|
-------------------|-------------------|-------------------|
-------------------|-------------------|-------------------|


-------------------|-------------------|-------------------|
-------------------|-------------------|-------------------|
-------------------|-------------------|-------------------|
-------------------|-------------------|-------------------|


-------------------|-------------------|-------------------|
-------------------|-------------------|-------------------|
-------------------|-------------------|-------------------|
-------------------|-------------------|-------------------|


-------------------|-------------------|-------------------|
-------------------|-------------------|-------------------|
-------------------|-------------------|-------------------|
-------------------|-------------------|-------------------|


                      H        H           W
-------------------|--------------------|-------------------|
-------------------|--------------------|-------------------|
-------------------|-----------2--------|--3----------------|
-------------------|--------------------|-------------------|


  W                   W                   H        H
-------------------|-------------------|--------------------|
--0----------------|-------------------|--------------------|
-------------------|-------------------|-----------2--------|
-------------------|--3----------------|--L-----------------|


  W                   W                   H        Q    Q
-------------------|-------------------|---------------------|
-------------------|--0----------------|---------------------|
--3----------------|-------------------|-----------3---------|
-------------------|-------------------|--3-------------3----|


  W                   H.           E  E     W
-------------------|---------------------|-------------------|
-------------------|---------------------|-------------------|
-------------------|---------------------|-------------------|
--L----------------|--2------------L--2--|--1----------------|


  H.           E  E     H        Q    Q       W
---------------------|---------------------|-------------------|
---------------------|-----------2---------|-------------------|
---------------------|---------------------|--0----------------|
--0------------L--0--|--0-------------0----|-------------------|


  W                   H.           E  E     H        H
-------------------|---------------------|--------------------|
-------------------|--0------------L--2--|--0-----------------|
--3----------------|---------------------|--------------------|
-------------------|---------------------|--------------------|


  Q.     E  Q    Q       H.           E  E     Q.     E  Q    Q
----------------------|---------------------|----------------------|
----------------------|---------------------|----------------------|
----------------------|---------------------|--0------0--L----0----|
--3------3--L----3----|--3------------L--3--|----------------------|


  H.           Q       Q.     E  Q    Q       H        H
--------------------|----------------------|--------------------|
--------------------|----------------------|-----------0--------|
--0------------0----|-----------------0----|--------------------|
--------------------|----------------------|--------------------|


  Q.     E  Q    Q       H        H           Q.     E  E  E  Q
----------------------|--------------------|-----------------------|
----------------------|--------------------|------------------2----|
--3------3--L----3----|--------------------|---------------2-------|
----------------------|--3--------2--------|--0------0--L----------|


  W                   Q.     E  Q    Q       H        Q    E  E
-------------------|----------------------|----------------------|
--0----------------|----------------------|----------------------|
-------------------|--4------4--L----4----|--3--------3----------|
-------------------|----------------------|----------------0--3--|


  Q.     E  Q    Q       H        H           Q.     E  Q    Q
----------------------|--------------------|----------------------|
----------------------|-----------0--------|----------------------|
--0------0--L----0----|--------------------|------------3---------|
----------------------|--------------------|--3------3-------3----|


  Q.     E  Q    Q       Q.     E  Q    Q       H        E  E  E  E
----------------------|----------------------|-----------0-----------|
-----------------4----|----------------------|-----------------------|
----------------------|----------------------|-----------------------|
--L------3--2---------|--3------3--L----3----|--3--------------0--3--|


  Q.     E  Q    Q       H.           Q       Q.     E  Q    Q
----------------------|--------------------|----------------------|
----------------------|--------------------|----------------------|
--0------0--L----0----|--0------------0----|-----------------0----|
----------------------|--------------------|----------------------|


  W                   Q.     E  Q    E  E     H        H
-------------------|-----------------------|--------------------|
--0----------------|-----------------------|--------------------|
-------------------|--3------3--L----3--0--|--------------------|
-------------------|-----------------------|--3--------2--------|


  Q.     E  E  E  Q       H.           E  E     Q.     E  Q    Q
-----------------------|---------------------|----------------------|
------------------2----|--0------------L--0--|----------------------|
---------------2-------|---------------------|--4------4--L----4----|
--0------0--L----------|---------------------|----------------------|


  H        Q    E  E     W                   W
----------------------|-------------------|-------------------|
----------------------|-------------------|-------------------|
--3--------3----------|--0----------------|-------------------|
----------------0--3--|-------------------|-------------------|


  H        Q    Q       H        H           W
---------------------|--------------------|-------------------|
---------------------|--------------------|-------------------|
-----------3---------|-----------2--------|--3----------------|
--3-------------3----|--L-----------------|-------------------|


  W                   W                   H        H
-------------------|-------------------|--------------------|
--0----------------|-------------------|--------------------|
-------------------|-------------------|-----------2--------|
-------------------|--3----------------|--3-----------------|


  W                   W                   H        Q    Q
-------------------|-------------------|---------------------|
-------------------|--0----------------|---------------------|
--3----------------|-------------------|-----------3---------|
-------------------|-------------------|--3-------------3----|


  H.           E  E     H.           Q       W
---------------------|--------------------|-------------------|
---------------2-----|--------------------|-------------------|
---------------------|--------------------|-------------------|
--L---------------3--|--2------------2----|--1----------------|


  W                   H        Q    Q       W
-------------------|---------------------|-------------------|
-------------------|-----------2---------|-------------------|
-------------------|---------------------|--0----------------|
--0----------------|--0-------------0----|-------------------|


  W                   H.           E  E     H        Q    Q
-------------------|---------------------|---------------------|
-------------------|--0---------------0--|-----------0---------|
--3----------------|---------------0-----|---------------------|
-------------------|---------------------|---------------------|


  H.           Q       H        Q    E  E     Q.     E  Q    Q
--------------------|----------------------|----------------------|
--------------------|----------------------|----------------------|
--------------------|----------------------|--0------0--L----0----|
--3------------3----|--3--------3----0--3--|----------------------|


  H        Q    E  E     Q.     E  Q    Q       H        Q.     E
-----------2----------|----------------------|---------------------|
-------------------2--|--0------0--L---------|-----------0------0--|
--0-------------0-----|-----------------0----|---------------------|
----------------------|----------------------|---------------------|


  Q.     E  Q    Q       Q.     E  H           Q.     E  E  E  Q
----------------------|---------------------|-----------------------|
----------------------|---------------------|------------------2----|
--3------3--L----3----|---------------------|---------------2-------|
----------------------|--3------3--2--------|--0------0--L----------|


  H.           E  E     Q.     E  Q    Q       H        Q    E  E
---------------------|----------------------|----------------------|
--0------------L--0--|----------------------|----------------------|
---------------------|--4------4--L----4----|--3--------3----------|
---------------------|----------------------|----------------0--3--|


  Q.     E  Q    Q       H        H           Q.     E  Q    Q
----------------------|--------------------|----------------------|
----------------------|--0--------0--------|----------------------|
--0------0--L----0----|--------------------|----------------------|
----------------------|--------------------|--3------3--L----3----|


  H        H            W                   H        Q    E  E
---------------------|--0----------------|--L--------L-------0--|
-----------0/--------|-------------------|----------------2-----|
---------------------|-------------------|----------------------|
--3------------------|-------------------|----------------------|


  W                   H         H           W
--2----------------|--L--------/9--------|--7----------------|
-------------------|---------------------|--------------------|
-------------------|---------------------|--------------------|
-------------------|---------------------|--------------------|


  W                   W                   H        H
-------------------|-------------------|--------------------|
--0----------------|-------------------|--------------------|
-------------------|--3----------------|--------------------|
-------------------|-------------------|--3--------2--------|


  Q.     E  Q    Q       W                   Q.     E  Q    Q
----------------------|-------------------|----------------------|
-----------------2----|--0----------------|----------------------|
----------------------|-------------------|--4------4--L----4----|
--0------0--L---------|-------------------|----------------------|


  H        Q    E  E     Q.     E  Q    Q       H        H
----------------------|----------------------|--------------------|
----------------------|----------------------|-----------0--------|
--3--------3----------|--0------0--L----0----|--------------------|
----------------0--3--|----------------------|--------------------|


  Q.     E  Q    Q       Q    Q    Q    Q       H        Q    Q
------------0---------|----------------------|---------------------|
----------------------|------------1---------|---------------------|
----------------------|----------------------|---------------------|
--3------3-------3----|----------------------|-----------3----4----|


  E  E  Q    Q    E  E     Q.     E  Q    Q       H.           E  E
------------------------|----------------------|---------------------|
-------------3----------|----------------------|---------------------|
------------------------|--1------1--L----1----|--1------------L--1--|
--L-----1---------1--4--|----------------------|---------------------|


  Q.     E  Q    Q       W                   Q.     E  Q    E  E
----------------------|-------------------|-----------------------|
----------------------|--1----------------|-----------------------|
-----------------1----|-------------------|--4------4--L----4--1--|
----------------------|-------------------|-----------------------|


  Q.     Q.     E  E     Q.     E  E  E  Q       H        Q.     E
----------------------|-----------------------|---------------------|
----------------------|------------------3----|--1---------------1--|
----------------------|---------------3-------|---------------------|
--4------3------4--3--|--1------1--L----------|---------------------|


  Q.     E  Q    Q       W                   W
----------------------|-------------------|-------------------|
--0------0--L----0----|-------------------|-------------------|
----------------------|--4----------------|-------------------|
----------------------|-------------------|-------------------|


  W                   W                   H.           E  E
-------------------|-------------------|---------------------|
-------------------|-------------------|---------------------|
--1----------------|-------------------|---------------------|
-------------------|-------------------|--4------------L-----|


  H.           E  E     H.           E  E     H        H
---------------------|---------------------|--------------------|
---------------------|---------------------|-----------1--------|
---------------------|--1------------L--1--|--------------------|
--1------------1--4--|---------------------|--------------------|


  H        H           H        H           W
--------------------|--------------------|-------------------|
--------------------|--------------------|-------------------|
--------------------|--------------------|-------------------|
--4--------3--------|--1-----------------|-------------------|


  W                   H.           E  E     W
-------------------|---------------------|-------------------|
-------------------|---------------------|--1----------------|
-------------------|---------------3--4--|-------------------|
-------------------|---------------------|-------------------|


  H        E  E  E  E     W                   H.           E  E
-----------------0--1--|-------------------|---------------------|
--L--------L--3--------|-------------------|---------------------|
-----------------------|--4----------------|--L------------3--4--|
-----------------------|-------------------|---------------------|


  W                   H        E  E  E  E     W
-------------------|-----------------0--1--|-------------------|
--1----------------|--L--------1--3--------|-------------------|
-------------------|-----------------------|--4----------------|
-------------------|-----------------------|-------------------|


  H        H           W
--------------------|-------------------||
--1-----------------|-------------------||
--------------------|-------------------||
--------------------|--4----------------||


Duration Legend
---------------
W - whole
H - half
Q - quarter
E - 8th
S - 16th
T - 32nd
X - 64th
. - note dotted
|-n-|  - n-tuplets


Tablature Legend
----------------
L - tied note
x - dead note
g - grace note
(n) - ghost note
> - accentuded note
NH - natural harmonic
AH - artificial harmonic
TH - tapped harmonic
SH - semi harmonic
PH - pitch harmonic
h - hammer on
p - pull off
b - bend
br - bendRelease
pb - preBend
pbr - preBendRelease
brb - bendReleaseBend
n/ - tremolo bar dip
n - tremolo bar dive
-/n - tremolo bar Release up
/n - tremolo bar inverted dip
/n - tremolo bar return
-n - tremolo bar Release down
S - shift slide
s - legato slide
/ -  slide into from below or out of upwards
 -  slide into from above or out of downwards
~ - vibrato
W - wide vibrato
tr - trill
TP - tremolo picking
T - tapping
S - slap
P - pop
< - fade in
^ - brush up
v - brush down
Suggest correction
Give kudos to tab author, rate the tab!
1 2 3 4 5
comments
print report bad tab
guest
You may want to rate the tab now too:
select rating
Wanna post a correction for this tab? Suggest correction