Oops, an error
Loading. Please wait.

Manda El Fuego Bass Tab

55 views 1 this week
no commentswrite comment
1 2 3 4 5
3 more votes to show rating
add to favorites
launch autoscroll
font size
0
reset
guitar tuner
Autoscroll
slow
fast
+/-
esc
set tempo
stop
Help us to improve Ultimate-Guitar.com Take our survey!
×
Esta rola tiene algunas figuras las cuales aparecen en forma de tab
donde aparecen tonos solo los marcan
y donde no hay nada pues no tocan, jeje


Oh Dios del fuego liampiador, mándalo

aquel poder comsumidor, manda el fuego hoy

G-------------------------------------------------------
D---5/7--5-----2/3--2-----------------------------------
A-----------5----------3--------------------------------
E-------------------------1-----------------------------

 C               F    C        G
Dios de Elias escuchanos, mandalo
    C            F      C    A         G    C
en vida o muerte yo me doy, manda el fuego hoy

G-------------------------------------------------------
D-----------3--2----------------------------------------
A-----2--5--------5--3----------------------------------
E--3----------------------------------------------------
  que quemes toda iniquidad

G-------------------------------------------------------
D-----------3--2--3--5----------------------------------
A-----2--5----------------------------------------------
E--3----------------------------------------------------
  que entren gloria, luz, verdad

G-------------------------------------------------------
D-------------------------------------------------------
A-----4--7--5-----2--3----------------------------------
E--5-----------5----------------------------------------
  que haya en mirevolucion

G-------------------------------------------------------
D-------------------------------------------------------
A---------------3---------------------------------------
E--1------3---------------------------------------------
   manda el Fuego hoy

          G  C             G  C
Manda el fuego, manda el fuego

G-------------------------------------------------------
D-------------------------------------------------------
A--------------------------------------------------3----
E------------3----5--7--8--7--5--3--1--------3----------
   manda el fuego                  manda el fuego hoy

G-------------------------------------------------------
D-------------------------------------------------------
A-------------------------------------------------------
E--5--3--1----------------------------------------------
   (ESTOS TONOS SON PARA ENTRAR OTRA VEZ A LA ESTROFA)

LA OTRA ESTROFA ES IGUAL A LA PRIMERA Y EL FINAL ES ASI:

G-------------------------------------------------------
D---5/7--5-----2/3--2-----------------------------------
A-----------5----------3--------3-----------------------
E-------------------------1--3--------------------------
Suggest correction
Give kudos to tab author, rate the tab!
1 2 3 4 5
comments
print report bad tab
guest
You may want to rate the tab now too:
select rating
Wanna post a correction for this tab? Suggest correction