Oops, an error
Loading. Please wait.

Me Has Llamado A Conocerte Bass

13 views 1 this week
no commentswrite comment
1 2 3 4 5
3 more votes to show rating
add to favorites
launch autoscroll
font size
0
reset
guitar tuner
×
Best way to learn
"Me Has Llamado A Conocerte"
Autoscroll
slow
fast
+/-
esc
set tempo
stop
Afinación: G D A E B

  Intro
G |------------------------------------------10-9--7------------------
D |--------------------------------------------------7-------?--------
A |----------------------------5-5----5--5--------------5----5?5\-----
E |-6-6----6--6---5-5----5--5------------------------------5----------
B |-------------------------------------------------------------------

G |-------------------------------------------------------|
D |-------------------------------------------------------|
A |-------------------------------------------------------|
E |6-6----6--6---5-5----5--5----3-3---3-3-3----5-5---5\---|
B |-------------------------------------------------------|

  Versos
G |-------------------------------------------------------------------
D |-------------------------------------------------------------------
A |------------------------------5-5----5--5---5-5----5--5?-5\--------
E |-6-6----6--6----5-5----5--5----------------5-----------------6-6---
B |-------------------------------------------------------------------

G |-------------------------------------------------------------------
D |-------------------------------------------------------------------
A |-----------------------5-5----5--5---5-5---5\----------------------
E |-6--6----5-5----5--5----------------5-----------------6-6----6--6--
B |-------------------------------------------------------------------

G |-------------------------------------------------------------------
D |-------------------------------------------------------------------
A |----------------5-5----5--5---5-5----------------------------------
E |--5-5----5--5----------------5------3----6-6----6--6----5-5----5--5
B |-------------------------------------------------------------------

G |-----------------------------------------|
D |--------------------------7?5h7----------|
A |-----------------------------------------|
E |----3-3----3--3-----5h6-5--------5--5----|
B |-----------------------------------------|

  Coros
G |-------------------------------------------------------------------
D |-------------------------------------------------------------------
A |5---5-5----3--3---3-3--3-----------------3-2-3----5---5-5----3?-3--
E |--------------------------3---3-3-3--3-----------------------------
B |-------------------------------------------------------------------

G |-------------------------------------------------------------------
D |-------------------------------------------------------------------
A |-3-3--3-----------------3-2-3----5---5-5----3--3---3-3--3----------
E |---------3---3-3-3--3--------------------------------------3---3-3-
B |-------------------------------------------------------------------


G |--------------------------------5\-------------|
D |-----------------------------------------------|
A |------3-2-3----5---5-5----3--3-----------------|
E |3--3--------------------------------5--5---5---|
B |-----------------------------------------------|

Todo Se Repite Igual

A Continuación adornos en tiempo exacto y puentes.

  (2:40) Puente
G |-----------3-3----------------4-4\---------------3-3---------5s7-5-
D |-------------------------------------------------------------------
A |1--1--1-----------2--2--2-------------1--1--1--------1-1h3---------
E |-----------------------------------------------------------3-------
B |-------------------------------------------------------------------

G |--------------|
D |-5\-----------|
A |------3-------|
E |--------------|
B |----------1---|

  (2:57) Puente durante el solo de piano
G |-------------------------------------------------------------------
D |-------------------------------------------------------------------
A |------------------------------5-5----5--5---5-5--------------------
E |-6-6----6--6----5-5----5--5----------------5-------3---3-----6-6---
B |-------------------------------------------------------------------

G |-------------------------------------------------------------------
D |----------------------------------------------------------7?5h7----
A |-------------------------------------------------------------------
E |-6--6?-6---5-5----5--5--5------3--3----3--3--3----5h6--5---------5-
B |-------------------------------------------------------------------

  (3:43)
G |---------------------------------------------------|
D |---------------------------------------------------|
A |-5---5-5----3--3---3-3-3------------------3-2-4----|
E |---------------------------3---3-3-3---3-----------|
B |---------------------------------------------------|

  (4:16) Final
G |----------------------------------|
D |----------------------------------|
A |----------------------------5-----|
E |6-6----6--6---5-5----5--5---------|
B |----------------------------------|
Suggest correction
Give kudos to tab author, rate the tab!
1 2 3 4 5
comments
print report bad tab
guest
You may want to rate the tab now too:
select rating
Wanna post a correction for this tab? Suggest correction