Oops, an error
Loading. Please wait.

No Podria Vivir Bass

15 views 1 this week
no commentswrite comment
1 2 3 4 5
3 more votes to show rating
add to favorites
launch autoscroll
font size
0
reset
guitar tuner
×
Best way to learn
"No Podria Vivir"
Autoscroll
slow
fast
+/-
esc
set tempo
stop
Afinación: G D A E

  Intro
G |-------------------------------------------------------------------
D |-------------------------------------------------------------------
A |--------------------------------1--1-3-1---3?-3--3-----------------
E |-3-3-3-3-3-3-3----/\---3--3-1h3---------------------1---1-1--------

G |-------------------------------------------------------------------
D |-------------------------------------------------------------------
A |----------1--1-3-1---3--3--3----------------------1--1-3-1---3?-3--
E |-3--3-1h3---------------------1---1-1----3--3-1h3------------------

G |------------------------------------------------|
D |------------------------------------------------|
A |-3----------------------1--1-3-1---3--3--3------|
E |----1---1-1----3--3-1h3---------------------1\--|

  Coros
G |-------------------------------------------------------------------
D |-------------------------------------------------------------------
A |----------1--1-3-1---3--3--3---------------------1--1-3-1---3--3--3
E |-3--3-1h3---------------------1---1-1---3--3-1h3-------------------

G |----------------------------------------------------4----4---------
D |-------------------------------------------------------------------
A |--------------------1--1-3-1---3--3--3-----------2----2----2-2h3-3-
E |-1---1-1---3--3-1h3---------------------1---1-1--------------------

G |------------------|
D |------------------|
A |-3-3-3-3-3--------|
E |-----------1----3-|

  Versos
G |---------5-3s5-----------7?5s7----------8-8s10-8-------8----7------
D |------5---------------7--------------8--------------8---------7----
A |2--3-----------3---5-----------5--6--------------6--------6-----5--
E |-------------------------------------------------------------------

G |-------5-3s5-----------7-5s7----------8-8s10-8---------------------
D |----5---------------7--------------8-------------------------------
A |-3-----------3---5-----------5--6--------------1-1-1-1-1-1-1-------
E |-------------------------------------------------------------------


Todo lo demás se repite igual como marca la tablatura.

A continuación los adornos en tiempo exacto y los puentes restantes.

  (2:11) Puente
G |-------------------------------------------------------------------
D |--5-3h5------------------------5-XX-3h5----------------------------
A |--------5--3--1--3-3-3-3h5-5------------5--3--1--3-3-3-3h5---5-----
E |-------------------------------------------------------------------

G |-------------------------------------------------------------------
D |--5-XX-3h5-------------------------5-5-3h5-------------------------
A |-----------5--3--1--3-3-3-3h5--5-----------5?-3--1--3-3-3----------
E |-----------------------------------------------------------1--?----

  Interludio
G |-------------------------------------------------------------------
D |-------------------------------------------------------------------
A |---------------------1-3-1--------------------1-3-1----------------
E |-1s3-----3?-3--3--3---------3-----3--3--3--3---------3-----3?-3?-3-

G |------------------------------------|
D |------------------------------------|
A |-----1-3-1---------3-3-3-3-3-3------|
E |-3---------1--------------------1---|

  (3:17)
G |--------------------------------------------------------------|
D |--------------------------------------------------------------|
A |--------------------1--3--1--------------------1?-3?1---------|
E |--3-----3--3--3--3-----------3-----3--3--3--3------------3\---|


  (3:58) Final
G |---------------------------------------------------------------
D |---------------------------------------------------------------
A |-------------------1--3--1---------------------1--3--1---------
E |-3-----3--3--3--3-----------3-----3--3--3--3-----------3-------

     Remate Final
G |-|--------------|-----------|
D |-|--------------|-----------|
A |-|--------------|-----------|
E |-|--------------|---3\------|
Suggest correction
Give kudos to tab author, rate the tab!
1 2 3 4 5
comments
print report bad tab
guest
You may want to rate the tab now too:
select rating
Wanna post a correction for this tab? Suggest correction