Oops, an error
Loading. Please wait.

Padre Nuestro Bass

18 views 1 this week
no commentswrite comment
1 2 3 4 5
3 more votes to show rating
add to favorites
launch autoscroll
font size
0
reset
guitar tuner
×
Best way to learn
"Padre Nuestro"
Autoscroll
slow
fast
+/-
esc
set tempo
stop
This is a really good song and a very complicated rithm
if you are not use to the sincopetia, so listen very
careful to the song and just feel it and enjoy it :)


          |--3-|                    |--3-|
     Q    Q    E  Q    Q       Q    Q    E  Q    Q
G||-------------------------|-------------------------|
D||-------------------------|-------------------------|
A||-------------------------|-------------------------|
E||-------------------------|-------------------------|
B||--3----L----3--L---------|--3----L----3--L---------|


       |--3-|                    |--3-|
  Q    Q    E  Q    Q       Q    Q    E  Q    Q
-------------------------|-------------------------|
-------------------------|-------------------------|
-------------------------|-------------------------|
-------------------------|-------------------------|
--3----L----3--L---------|--3----L----3--L---------|


       |--3-|                    |--3-|
  Q    Q    E  Q    Q       Q    Q    E  Q    Q
-------------------------|-------------------------|
-------------------------|-------------------------|
-------------------------|-------------------------|
-------------------------|-------------------------|
--3----L----3--L---------|--3----L----3--L---------|


       |--3-|                    |--3-|
  Q    Q    E  Q    Q       Q    Q    E  Q    Q
-------------------------|-------------------------|
-------------------------|-------------------------|
-------------------------|-------------------------|
-------------------------|-------------------------|
--3----L----3--L---------|--3----L----3--L---------|


       |--3-|                    |--3-|
  Q    Q    E  Q    Q       Q    Q    E  Q    Q
-------------------------|-------------------------|
-------------------------|-------------------------|
-------------------------|-------------------------|
-------------------------|-------------------------|
--3----L----3--L---------|--3----L----3--L---------|


       |--3-|                    |--3-|
  Q    Q    E  Q    Q       Q    Q    E  Q    Q
-------------------------|-------------------------|
-------------------------|-------------------------|
-------------------------|-------------------------|
-------------------------|-------------------------|
--3----L----3--L---------|--3----L----3--L---------|


       |--3-|                    |--3-|
  Q    Q    E  Q    Q       Q    Q    E  Q    Q
-------------------------|-------------------------|
-------------------------|-------------------------|
-------------------------|-------------------------|
-------------------------|-------------------------|
--3----L----3--L---------|--3----L----3--L---------|


       |--3-|               |--3-|  |--3--|  |--3--|
  Q    Q    E  Q    Q       Q    E  E  E  E  E  E  E  Q
-------------------------|---------------------------------|
-------------------------|--0----0--0--0--0--0--0--0--0----|
-------------------------|---------------------------------|
-------------------------|---------------------------------|
--3----L----3--L---------|---------------------------------|


  |--3-|  |--3-|  |--3-|          |--3-|  |--3-|  |--3-|  |---3--|
  Q    E  Q    E  Q    E  Q       Q    E  Q    E  Q    E  E   E  E
-------------------------------|------------------------------------|
-------------------------------|-----------------------0---------0--|
-------------------------------|--------------------------0h--2-----|
-------------------------------|------------------------------------|
--3----3-------3--L----3-------|--3----3-------3--------------------|


  |--3-|  |--3-|  |--3-|          |--3-|  |--3-|  |--3-|  |---3--|
  Q    E  Q    E  Q    E  Q       Q    E  Q    E  Q    E  E   E  E
-------------------------------|------------------------------------|
-------------------------------|-----------------------0---------0--|
-------------------------------|--------------------------0h--2-----|
-------------------------------|------------------------------------|
--3----3-------3--L----3-------|--3----3-------3--------------------|


  |--3-|  |--3-|       |--3--|     |--3-|  |--3-|  |--3--|
  Q    E  Q    E  Q    E  E  E     Q    E  Q    E  E  E  E  Q
--------------------------0-----|---------------------4----------|
--------------------------------|--------------------------------|
--------------------------------|---------------2--------2--2----|
--3----3--L----3--L----------3--|--2----2--L---------------------|
--------------------------------|--------------------------------|


  |--3-|  |--3-|               |--3-|  |--3-|  |--3--|
  Q    E  Q    E  Q    Q       Q    E  Q    E  E  E  E  Q
----------------------------|---------------------2----------|
----------------------------|------------------------2-------|
----------------------------|--0----0--L----0--L--------0----|
--0----0--L----3--L---------|--------------------------------|
----------------------------|--------------------------------|


  |--3-|  |--3-|               |--3-|  |--3-|  |--3-|  |---3--|
  Q    E  Q    E  Q    Q       Q    E  Q    E  Q    E  E   E  E
----------------------------|------------------------------------|
----------------------------|-----------------------0---------0--|
----------------------------|--------------------------0h--2-----|
----------------------------|------------------------------------|
--3----3-------3--L---------|--3----3-------3--------------------|


  |--3-|  |--3-|               |--3-|  |--3-|  |--3--|  |--3--|
  Q    E  Q    E  Q    Q       Q    E  Q    E  E  E  E  E  E  E
----------------------------|------------------------------------|
----------------------------|------------------------2--0--------|
----------------------------|---------------------0--------------|
----------------------------|------------------------------0-----|
--3----3-------3--L---------|--3----3-------3-----------------3--|


  |--3-|  |--3-|       |--3--|     |--3-|  |--3-|  |--3--|
  Q    E  Q    E  Q    E  E  E     Q    E  Q    E  E  E  E  Q
--------------------------0-----|---------------------4----------|
--------------------------------|--------------------------------|
--------------------------------|---------------2--------2--2----|
--3----3--L----3--L----------3--|--2----2--L---------------------|
--------------------------------|--------------------------------|


  |--3-|  |--3-|       |--3--|     |--3-|  |--3-|  |--3--|
  Q    E  Q    E  Q    E  E  E     Q    E  Q    E  E  E  E  Q
--------------------------------|---------------------2----------|
--------------------------------|------------------------2-------|
--3----3--L----2--2----L--2-----|--0----0--L----0--L--------0----|
-----------------------------3--|--------------------------------|
--------------------------------|--------------------------------|


  |--3-|  |--3-|  |--3-|  |--3-|     |--3-|  |--3-|  |--3-|  |--3-|
  Q    E  Q    E  Q    E  Q    E     Q    E  Q    E  Q    E  Q    E
--------------------------2-------|-------0--------------------------|
----------------------------------|--------------------------0-------|
--2-------2----0--L----0-------0--|----------------------------------|
-------2--------------------------|--3-------3-----------------------|
----------------------------------|---------------3--L----3-------3--|


  |--3-|  |--3-|  |--3-|  |--3-|
  Q    E  Q    E  Q    E  Q    E
----------------------------------|
----------2---------------2-------|
----------------------------------|
--0----0-------0--L----0-------0--|
----------------------------------|


  |--3-|  |--3-|  |--3--|  |--3-|
  Q    E  Q    E  E  E  E  Q    E
----------2----------2-------------|
------------------------2----------|
--0----0-------0--0--------0----0--|
-----------------------------------|
-----------------------------------|


  |--3-|  |--3-|  |--3-|  |--3-|     |--3-|  |--3-|  |--3-|  |--3-|
  Q    E  Q    E  Q    E  Q    E     Q    E  Q    E  Q    E  Q    E
--------------------------2-------|----------0-----------------------|
-------4--------------------------|--------------------------0-------|
--2-------2----0--L----0-------0--|----------------------------------|
----------------------------------|--3----3--------------------------|
----------------------------------|---------------3--L----3-------3--|


  |--3-|  |--3-|  |--3-|  |--3-|     |--3-|  |--3-|  |--3-|  |--3-|
  Q    E  Q    E  Q    E  Q    E     Q    E  Q    E  Q    E  Q    E
----------------------------------|-------0------------------2-------|
--2-----------------------4-------|----------------------------------|
-------2--------------------------|---------------0--L----0-------0--|
----------0----2--L----2-------2--|--3-------3-----------------------|
----------------------------------|----------------------------------|


               |--3--|          |--3-|
  H.           E  E  E     Q    Q    E  H
------------------------|------------------------|
---------------4--------|------------------------|
------------------------|------------0--L--------|
--2---------------2--0--|--L----L----------------|
------------------------|------------------------|


       |--3-|  |--3-|  |--3-|          |--3-|  |--3--|  |---3--|
  Q    Q    E  Q    E  Q    E     Q    Q    E  E  E  E  E   E  E
-------------------------------|----------------------------------|
----------------------------x--|------------------0------------0--|
-------------------------------|------------------------0h--2-----|
-------------------------------|----------------------------------|
--3---------3--L----3----------|--3---------3--------3------------|


  |--3-|  |--3-|  |--3-|  |--3-|
  Q    E  Q    E  Q    E  Q    E
----------------------------------|
----------------------------------|
----------------------------------|
----------------------------------|
--3----3-------3--L----3-------3--|


  |--3-|  |--3-|  |--3--|  |--3--|          |--3-|       |--3--|
  Q    E  Q    E  E  E  E  E  E  E     Q    Q    E  Q    E  E  E
------------------------------------|-----------------------0-----|
---------------------------0--------|-----------------------------|
---------------------0--2-----2--0--|-----------------------------|
------------------------------------|--3---------3--L----------3--|
--3----3-------3--------------------|-----------------------------|


       |--3-|  |--3-|          |--3-|  |--3-|       |--3-|
  Q    Q    E  Q    E  Q       Q    E  Q    E  Q    Q    E
----------------------------|-------------------------------|
----------------------------|-------------------------------|
------------2--L----x--2----|-------------------------------|
--2-------------------------|--0----0--L----3--L---------3--|
----------------------------|-------------------------------|


  |--3-|  |--3--|  |--3--|  |--3-|     |--3-|  |--3-|       |--3-|
  Q    E  E  E  E  E  E  E  Q    E     Q    E  Q    E  Q    Q    E
----------------4--2-----2----------|-------------------------------|
-------------2--------2-------------|--0----0-----------------------|
--0----0--L-----------------0----0--|-------------------------------|
------------------------------------|-------------------------------|
------------------------------------|---------------3--L---------3--|


  |--3-|  |--3-|  |--3--|  |---3--|     |--3-|  |--3-|
  Q    E  Q    E  E  E  E  E   E  E     Q    E  Q    E  Q    Q
-------------------------------------|----------------------------|
---------------------0------------0--|----------------------------|
---------------------------0h--2-----|----------------------------|
-------------------------------------|----------------------------|
--3----3-------3--------3------------|--3----3-------3--L---------|


  |--3-|  |--3--|  |--3--|          |--3-|  |--3-|       |--3--|
  Q    E  E  E  E  E  E  E  Q       Q    E  Q    E  Q    E  E  E
---------------------------------|--------------------------0-----|
----------2--2--0--L-------------|--------------------------------|
-------0--------------0----------|--------------------------------|
-------------------------0-------|--3----3--L----3--L----------3--|
----------------------------3----|--------------------------------|


  |--3-|  |--3-|  |--3--|  |--3-|     |--3-|  |--3-|       |--3-|
  Q    E  Q    E  E  E  E  Q    E     Q    E  Q    E  Q    Q    E
---------------------x-------------|-------------------------------|
-----------------------------------|-------------------------------|
---------------2--------2--2----2--|--3----3--L----2--2----L-------|
--2----2--L------------------------|----------------------------3--|
-----------------------------------|-------------------------------|


  |--3-|  |--3--|  |--3--|  |--3-|
  Q    E  E  E  E  E  E  E  Q    E
----------2--2--------2--2----------|
------------------------------------|
--0----0--------0--L--------0----0--|
------------------------------------|
------------------------------------|


  |--3-|  |--3-|  |--3-|  |--3-|
  Q    E  Q    E  Q    E  Q    E
--------------------------2-------|
----------------------------------|
--2-------2----0--L----0-------0--|
-------2--------------------------|
----------------------------------|


  |--3-|  |--3-|  |--3-|  |--3--|          |--3-|  |--3-|  |--3-|
  Q    E  Q    E  Q    E  E  E  E     Q    Q    E  Q    E  Q    E
-----------------------------------|-------------------------------|
-----------------------0--------0--|--2--------------------2-------|
--------------------------0--2-----|-------2-----------------------|
--3----3--L------------------------|------------0--L----0-------0--|
---------------3--L----------------|-------------------------------|


  |--3-|  |--3-|  |--3--|  |--3-|     |--3-|  |--3-|
  Q    E  Q    E  E  E  E  Q    E     Q    E  Q    E  H
---------------------2-------------|---------------------------|
------------------------2----------|---------------------------|
--0----0-------0-----------0----0--|--2-------2----0--L--------|
-----------------------------------|-------2-------------------|
-----------------------------------|---------------------------|


  |--3-|  |--3--|  |--3-|          |--3-|  |--3-|       |--3--|
  Q    E  E  E  E  Q    E  Q       Q    E  Q    E  Q    E  E  E
----------0---------------------|--------------------------------|
------------------------4-------|--------------------------4-----|
--------------------------------|--------------------------------|
--3----3-----3--2--L-------2----|--0----0-------2--L----------2--|
--------------------------------|--------------------------------|


  |--3-|  |--3-|  |--3--|          |--3-|  |--3-|       |--3--|
  Q    E  Q    E  E  E  E  Q       Q    E  Q    E  Q    E  E  E
------------------------2-------|--------------------------------|
---------------------2----------|--------------------------------|
---------------0--L--------0----|--2----2-------0--L-------x--x--|
--3----3------------------------|--------------------------------|
--------------------------------|--------------------------------|


  |--3-|  |--3-|  |--3--|  |---3--|          |--3-|
  Q    E  Q    E  E  E  E  E   E  E     Q    Q    E  Q    Q
-------------------------------------|-------------------------|
---------------------0------------0--|--2-----------------2----|
------------------------x--0h--2-----|-------------------------|
--3----3--L--------------------------|------------0--0---------|
---------------3--L------------------|-------------------------|


  |--3-|  |--3-|  |--3--|          |--3-|  |--3-|       |--3-|
  Q    E  Q    E  E  E  E  Q       Q    E  Q    E  Q    Q    E
---------------------2----------|-----------------------2-------|
------------------------2-------|-------------------------------|
--2----2-------0-----------0----|--2-------2----0--L---------0--|
--------------------------------|-------2-----------------------|
--------------------------------|-------------------------------|


  |--3-|  |--3-|  |--3-|  |---3--|     |--3-|  |--3-|       |--3-|
  Q    E  Q    E  Q    E  E   E  E     Q    E  Q    E  Q    Q    E
-------0----------------------------|-------------------------------|
-----------------------0---------0--|--2-------------------------4--|
--------------------------0h--2-----|-------2-----------------------|
--3-------3-------------------------|----------0----2--L----L-------|
---------------3--3-----------------|-------------------------------|


  |--3-|  |--3-|               |--3-|           |--3--|
  Q    E  Q    E  Q    Q       Q    E  H        E  E  E
-------0---------------2----|----------------------------|
----------------------------|----------------------2-----|
---------------0--L---------|----------------------------|
--3-------3-----------------|--0----0-----------------0--|
----------------------------|----------------------------|


  |--3-|           |--3--|     |--3-|           |--3--|
  Q    E  H        E  E  E     Q    E  H        E  E  E
----------------------------|----------------------0-----|
----------------------4-----|----------------------------|
----------------------------|----------------------------|
--2----2-----------------2--|--3----3-----------------3--|
----------------------------|----------------------------|


  |--3-|  |--3--|  |--3--|  |--3-|
  Q    E  E  E  E  E  E  E  Q    E     H        H
----------------4--2----------------|--------------------|
-------------2--------2-------------|--------------------|
--0----0--0--------------2--0----2--|--L-----------------|
------------------------------------|--------------------|
------------------------------------|--------------------|


  |--3-|  |--3--|  |--3-|  |--3--|
  Q    E  E  E  E  Q    E  E  E  E
------------------------------------|
------------------------------------|
--2----2-----------2----2-----2-----|
-------------2--4----------------2--|
------------------------------------|


  |--3-|  |--3--|  |--3-|  |--3--|
  Q    E  E  E  E  Q    E  E  E  E
------------------------------------|
------------------------------------|
------------------------------------|
--4----4--------2--4----4-----4-----|
-------------4-------------------4--|


  |--3-|  |--3-|  |--3-|  |--3-|          |--3--|  |--3-|  |--3-|
  Q    E  Q    E  Q    E  Q    E     Q    E  E  E  Q    E  Q    E
----------------------------------|-------2------------------------|
----------------------------------|------------------------2-------|
-------------------------------0--|--L-------0---------------------|
--2----2-------2--2----2----------|-------------0--L----0-------0--|
----------------------------------|--------------------------------|


  |--3-|  |--3--|  |--3-|  |--3--|
  Q    E  E  E  E  Q    E  E  E  E
------------------------------------|
------------------------------------|
--2----2-----------2----2-----2-----|
-------------2--4----------------2--|
------------------------------------|


  |--3-|  |--3--|  |--3-|  |--3--|
  Q    E  E  E  E  Q    E  E  E  E
------------------------------------|
------------------------------------|
------------------------------------|
--4----4--------2--4----4-----4-----|
-------------4-------------------4--|


  |--3-|  |--3--|  |--3-|  |--3-|          |--3--|       |--3--|
  Q    E  E  E  E  Q    E  Q    E     Q    E  E  E  Q    E  E  E
-------------0---------------------|-------2-------------4--------|
-----------------------------------|------------------------------|
--------------------------------0--|--L-------0--2--L-------x--2--|
--3----3--------3--3----3--L-------|------------------------------|
-----------------------------------|------------------------------|


  |--3-|  |--3-|  |--3--|  |--3--|
  Q    E  Q    E  E  E  E  E  E  E
---------------------4--------------|
------------------------------------|
--4-------4----2--L-----2-----2-----|
-------4-------------------------2--|
---------------------------0--------|


       |--3-|  |--3--|  |--3--|     |--3-|  |--3--|  |--3-|  |--3-|
  Q    Q    E  E  E  E  E  E  E     Q    E  E  E  E  Q    E  Q    E
---------------------------------|-----------------------------------|
------------------2-----------2--|-------------4-------------4-------|
--0----0-------------x--2--4-----|----------------4------------------|
------------0--L-----------------|--2----2-----------2----2-------2--|
---------------------------------|-----------------------------------|


  |--3-|  |--3--|  |--3-|  |--3--|
  Q    E  E  E  E  Q    E  E  E  E
------------------------------------|
------------------------------------|
--2----2-----------2----2--------2--|
-------------2--4-------------4-----|
------------------------------------|


  |--3-|  |--3-|  |--3-|  |--3--|     |--3-|  |--3-|       |--3--|
  Q    E  Q    E  Q    E  E  E  E     Q    E  Q    E  Q    E  E  E
-----------------------4-----------|-------2------------------------|
-----------------------------------|-----------------------2--------|
--4-------4----2--L-------------2--|--0-------0---------------2-----|
-------4------------------2--4-----|---------------0--L----------0--|
-----------------------------------|--------------------------------|


  |--3-|  |--3--|       |--3--|          |--3--|  |--3--|  |--3-|
  Q    E  E  E  E  Q    E  E  E     Q    E  E  E  E  E  E  Q    E
---------------------------1-----|-------2-----------4-------------|
----------4----------------------|---------------------------------|
---------------------------------|--0-------0--2--------0--2-------|
--2----2-----2--4--L----------4--|------------------------------4--|
---------------------------------|---------------------------------|


  |--3-|  |--3-|       |--3--|     |--3-|  |--3-|  |--3--|  |--3--|
  Q    E  Q    E  Q    E  E  E     Q    E  Q    E  E  E  E  E  E  E
--------------------------------|------------------------------------|
-----------------------4--------|-------2-------------2--------2-----|
--4-------4----2--L----------2--|--0-------0-------------2--4-----2--|
-------4------------------4-----|---------------0--L-----------------|
--------------------------------|------------------------------------|


  |--3-|  |--3--|  |--3--|
  Q    E  E  E  E  E  E  E  Q
---------------------------------|
----------------2--4-------------|
-------------4--------4----------|
--2----2-----------------2--2----|
---------------------------------|


  |--3-|  |--3--|  |--3-|  |--3--|     |--3-|  |--3-|       |--3--|
  Q    E  E  E  E  Q    E  E  E  E     Q    E  Q    E  Q    E  E  E
------------------------------------|--------------------------------|
-------------4----------------------|-----------------------4--------|
--2----2-----------2----2--------2--|--4-------4----2--L----------2--|
----------------4----------2--4-----|-------4------------------4-----|
------------------------------------|--------------------------------|


  |--3-|  |--3-|       |--3--|          |--3--|  |--3-|  |--3-|
  Q    E  Q    E  Q    E  E  E     Q    E  E  E  Q    E  Q    E
--------------------------------|---------------------1----------|
-------2------------------2-----|-------4------------------------|
--0-------0---------------------|--------------------------------|
---------------0--L----------0--|--2-------2--4--L-------4----4--|
--------------------------------|--------------------------------|


  |--3-|  |--3--|  |--3--|  |--3-|     |--3-|           |--3--|
  Q    E  E  E  E  E  E  E  Q    E     Q    E  H        E  E  E
-------2----------------------------|----------------------------|
----------------------4-------------|----------------------4-----|
--0-------0--0--2--L--------2-------|----------------------------|
-------------------------4-------0--|--2----2-----------------2--|
------------------------------------|----------------------------|


  |--3-|           |--3--|     |--3-|           |--3--|
  Q    E  H        E  E  E     Q    E  H        E  E  E
----------------------1-----|----------------------2-----|
----------------------------|----------------------------|
----------------------------|--0----0-----------------0--|
--4----4-----------------4--|----------------------------|
----------------------------|----------------------------|


  |--3-|       |--3--|  |--3--|     |--3-|           |--3--|
  Q    E  Q    E  E  E  E  E  E     Q    E  H        E  E  E
------------------4--------------|----------------------------|
---------------------4-----------|----------------------4-----|
--2----2----------------2--------|----------------------------|
------------------------------0--|--2----2-----------------2--|
---------------------------4-----|----------------------------|


  |--3-|           |--3--|     |--3-|       |--3--|  |--3-|
  Q    E  H        E  E  E     Q    E  Q    E  E  E  Q    E
----------------------1-----|------------------2-------------|
----------------------------|---------------------2----------|
----------------------------|--0----0----------------0----0--|
--4----4-----------------4--|--------------------------------|
----------------------------|--------------------------------|


  |--3-|  |--3--|  |--3-|          |--3-|  |--3-|  |--3--|  |--3--|
  Q    E  E  E  E  Q    E  Q       Q    E  Q    E  E  E  E  E  E  E
------------------------4-------|------------------------------------|
-------------4------------------|---------------------4--------4-----|
--2----2-----------2-------2----|------------------------------------|
----------------4---------------|--2----2-------x--x-----x--x-----2--|
--------------------------------|------------------------------------|


  |--3-|  |--3-|  |--3--|  |--3--|
  Q    E  Q    E  E  E  E  E  E  E
------------------------------1-----|
---------------------4--------------|
------------------------------------|
--4----4-------x--x-----x--x-----4--|
------------------------------------|


  |--3-|  |--3-|  |--3--|  |--3--|
  Q    E  Q    E  E  E  E  E  E  E
---------------------2--------2-----|
------------------------------------|
--0----0-------x--x-----x--x-----0--|
------------------------------------|
------------------------------------|


  |--3-|  |--3-|  |--3--|  |--3-|
  Q    E  Q    E  E  E  E  Q    E
---------------------4-----4-------|
-----------------------------------|
--2----2-------2--2-----2----------|
--------------------------------0--|
-----------------------------------|


  |--3-|  |--3-|  |--3--|  |--3--|
  Q    E  Q    E  E  E  E  E  E  E
------------------------------------|
---------------------4--------4-----|
------------------------------------|
--2----2-------x--x-----x--x-----2--|
------------------------------------|


  |--3-|  |--3-|  |--3--|  |--3--|
  Q    E  Q    E  E  E  E  E  E  E
------------------------------1-----|
---------------------4--------------|
------------------------------------|
--4----4-------x--x-----x--x-----4--|
------------------------------------|


  |--3-|  |--3-|  |--3--|  |--3--|          |--3-|  |--3-|
  Q    E  Q    E  E  E  E  E  E  E     Q    Q    E  Q    E  Q
---------------------2--------2-----|----------------------------|
------------------------------------|----------------------------|
--0----0-------x--x-----x--x-----0--|--2----L----2--L----2--2----|
------------------------------------|----------------------------|
------------------------------------|----------------------------|


                                          |--3-|
  W                   W                   Q    E  H.
-------------------|-------------------|-----------------------|
-------------------|-------------------|-----------------------|
-------------------|-------------------|-------2---------------|
--0----------------|--L----------------|--L-------0------------|
-------------------|-------------------|-----------------------|


  W                   W
-------------------|-------------------||
-------------------|-------------------||
-------------------|-------------------||
--L----------------|--L----------------||
-------------------|-------------------||


Duration Legend
---------------
W - whole
H - half
Q - quarter
E - 8th
S - 16th
T - 32nd
X - 64th
. - note dotted
|-n-|  - n-tuplets


Tablature Legend
----------------
L - tied note
x - dead note
g - grace note
(n) - ghost note
> - accentuded note
NH - natural harmonic
AH - artificial harmonic
TH - tapped harmonic
SH - semi harmonic
PH - pitch harmonic
h - hammer on
p - pull off
b - bend
br - bendRelease
pb - preBend
pbr - preBendRelease
brb - bendReleaseBend
n/ - tremolo bar dip
n - tremolo bar dive
-/n - tremolo bar Release up
/n - tremolo bar inverted dip
/n - tremolo bar return
-n - tremolo bar Release down
S - shift slide
s - legato slide
/ -  slide into from below or out of upwards
 -  slide into from above or out of downwards
~ - vibrato
W - wide vibrato
tr - trill
TP - tremolo picking
T - tapping
S - slap
P - pop
< - fade in
^ - brush up
v - brush down
Suggest correction
Give kudos to tab author, rate the tab!
1 2 3 4 5
comments
print report bad tab
guest
You may want to rate the tab now too:
select rating
Wanna post a correction for this tab? Suggest correction