Oops, an error
Loading. Please wait.

Palabras De Vida Eterna Bass Tab

16 views 1 this week
no commentswrite comment
1 2 3 4 5
3 more votes to show rating
add to favorites
launch autoscroll
font size
0
reset
guitar tuner
Autoscroll
slow
fast
+/-
esc
set tempo
stop
Help us to improve Ultimate-Guitar.com Take our survey!
×
Hola a todos, saludos desde El Salvador a ustedes.
Aqui están las figuras de esta canción...

Intro: (I Parte)
Si tienes bajo       | Si tienes de 4 ó 5
de 6 cuerdas         |
B---------|            |-------------|
E---------|            |-------------|
A---------|            |-------------|
D---------|            |-------------|
G---------|            |----12s14----|
C---7s9---|<<<hammer

   (II parte) :
B---------------------------|
E-5-5----5s7----------5-----|
A-------------5s7--5-----5--| Termina en E
D---------------------------|
G---------------------------|
4 veces

Estrofa:
B---------3-3--3-----|----------3-3--3-----|--------------------------|
E-5-5------------5-3-|--5-5------------5-3-|--------------------------|
A------5-------------|-------5-------------|-3--3---5--5---2--2---7-7-|
D--------------------|---------------------|--------------------------|
G--------------------|---------------------|--------------------------|
  2 veces.

Coro:
Solo cristo tiene...
B---------------------------|---------------------------|
E-5-5----5s7----------5-----|-5-5----5s7----------5-----|
A-------------5s7--5-----5--|-------------5s7--5-----5--|
D---------------------------|---------------------------|
G---------------------------|---------------------------|
Solo cristo tiene...
B---------------------------|---------------------------|
E-5-5----5s7----------5-----|-5-5----5s7----------5-----|
A-------------5s7--5-----5--|-------------5s7--5-----5--|
D---------------------------|---------------------------|
G---------------------------|---------------------------|
Para el afligido, para...
B-------------------------------------------------|
E-5--5----1--1-----------------------------0-0-0--|
A-----------------3--3-----5--5-----7--7----------|
D-------------------------------------------------|
G-------------------------------------------------|

Se repite todo otra vez.

Solo de guitarra: (ver tablaturas de guitarra, de mi hermano Moisés)

Bajo:
B---------------------------------------------------------------------|
E-----------5--5-------------------5--5-------------------------------|
A--5-5--5---------------5--5--5-----------7--------5--5--5----7--7--7-|
D------------------7-------------------------7s9----------------------|
G---------------------------------------------------------------------|

Final.

Bueno esta es la version que toco se oyen bien, espero que la saques en
tu iglesia Esto es todo, si tienes dudas mandame un mail.
¡ B E N D I C I O N E S !
Suggest correction
Give kudos to tab author, rate the tab!
1 2 3 4 5
comments
print report bad tab
guest
You may want to rate the tab now too:
select rating
Wanna post a correction for this tab? Suggest correction