Oops, an error
Loading. Please wait.

Palabras De Vida Eterna Tab

148 views 1 this week
no commentswrite comment
1 2 3 4 5
3 more votes to show rating
add to favorites
×
Save as Personal and add changes to this tab that will be seen only by you. Learn more ›
×
You can save this tab as Personal to edit and correct it or add notes. All changes will be seen only by you. Learn more »
save as personal
new!
launch autoscroll
font size
0
reset
how to read this tab
guitar tuner
Autoscroll
slow
fast
+/-
esc
set tempo
stop
Intro:
E--5------------5-3-55--5------------
A-----3-6-5--3-------------3-----5-3-
D------------------------------5-4---
G------------------------------------
B------------------------------------
E------------------------------------
---5-----------5-3-55---5-------------|
------3-6-5-3-------------3-----5-----|
-----------------------------------5--|
--------------------------------------|
--------------------------------------|
--------------------------------------|


Oye la música, y checa bien los tiempos,
porque cuando entras por primera vez
en el traste 3 como que se entra en destiempo.


Puente:

E------------------------------------
A------------------------------------
D------------------------------------
G---------------------2----v2-2-22---
B-3h5--v5-5-5-3-1--1h3-1-------------
E------------------------------------

--------------------------------------------------------|
--------------------------------------------------------|
--------------------------------------------------------|
-----------------------------------------2----2-2-------|
----------------------5--5-3-5-3-1--1h3-1---------------|
---3h5--55---3h5--55---5-3--3------------------------3-5|


E-----------------------------------------------------------
A-----------------------------------------------------------
D-----------------------------------------------------------
G------------------------------5----------------------5----5
B--------------------3h5-5-3---3h5-5---3h5-5-3---3---3-v5---
E--5s8--5?3s5-----------------------------------------------


----------------------------|
----------------------------|
----------------------------|
----------------------------|
----------------------------|
-------8--10-10-10?10s12v---|


Pues, éste es el puente, hay partes que las tocas rápido,
yo toco el requinto en esa posición porque me es mas fácil,
jejeje, pero pues tu puedes transportarlo hasta donde se te
haga fácil o hasta donde tu quieras.

Los acordes son medios raros, porque si te das cuenta, como
que suenan diferentes a como los marca el cancionero


Este es el Am7 que ellos tocan

E-------5------|
A-------0------|
D-------5------|
G-------5------|
B-------5------|
E--------------|

Este es el D7 que tocan

E--------------|
A------5-------|
D------4-------|
G------5-------|
B------5-------|
E--------------|

Pues, ya, creo que eso es todo.

Espero que te guste mi versión.

Que Dios te bendiga.
Suggest correction
Give kudos to tab author, rate the tab!
1 2 3 4 5
comments
print report bad tab
guest
Wanna post a correction for this tab? Suggest correction