Oops, an error
Loading. Please wait.

Poderoso Dios Sobrenatural Tab

147 views 6 this week
no commentswrite comment
1 2 3 4 5
2 more votes to show rating
add to favorites
launch autoscroll
font size
0
reset
how to read this tab
guitar tuner
×
Best way to learn
"Poderoso Dios Sobrenatural"
Autoscroll
slow
fast
+/-
esc
set tempo
stop
Hay que escuchar primero como lo tocan en el CD para identificar
los tiempos y silencios que van.


Intro
e||-----------------------12-12--------
B||13-13-13-12-13---13-15------15-13-13
G||---------------12-------------------

e||------------15s17-15-15h17--
B||13-13-13-12---------------17
G||----------------------------

e||----------------------------------------------------------||
B||13-13-13-12-13v-13-12-----13-10-13-13-15-12---------------||
G||---------------------12-10-----------------14-12-12h14v-12||

Solo

e||--------------------------------------15s17--15h17
B||-----12-12-13------13-15-15b17v-15p13-------------
G||12-12--------14--14-------------------------------

e||----------------------12-13-12h13-15--15-15-----18
B||13-13-12-12-----12-15---------------13-----18-17--
G||-----------12-12----------------------------------

e||--13--------13h15-15-15-----------------------------
B||13--15-13h15-----------12h13-12h13-12h13-12h13-12h13
G||----------------------------------------------------

e||-----------||
B||15b17-12h13||
G||-----------||
Suggest correction
Give kudos to tab author, rate the tab!
1 2 3 4 5
comments
print report bad tab
guest
You may want to rate the tab now too:
select rating
Wanna post a correction for this tab? Suggest correction