Oops, an error
Loading. Please wait.

Sana Nuestra Tierra Tab

189 views 3 this week
no commentswrite comment
1 2 3 4 5
3 more votes to show rating
add to favorites
launch autoscroll
font size
0
reset
how to read this tab
guitar tuner
Autoscroll
slow
fast
+/-
esc
set tempo
stop
Help us to improve Ultimate-Guitar.com Take our survey!
×

E-----------------------------------------------------------
B-------12h15(15)bends full15--12-------------------------------
G---------------------------------1412111211----------------
D-12s14--------------------------------------12v------------
A-----------------------------------------------------------
E------------------------------------------------------------

E------------------------------------------------------------
B-----------------------------------------------------12-----
G--------11h12h14v-14h16141212--11h1211------------12------
D-12s14---------------------------------1412v--14------------
A------------------------------------------------------------
E------------------------------------------------------------

E---------14h1514-------------15h17s19v19-17h15s17--------
B--15117----------15s17-15h17-------------------------------
G------------------------------------------------------------
D------------------------------------------------------------
A-----------------------------------------------------------
E------------------------------------------------------------

E-14h1715po1415--------14s15(15)-------------------------
B---------------171517----------1515-------------------------
G------------------------------------11h12141212-----------
D------------------------------------------------------------
A------------------------------------------------------------
E------------------------------------------------------------

E-------------------------------12h15h14po12-----------------
B----15------------------------------------------------------
G-12----1212vs-----------12h14-------------------------------
D------------------12h14-------------------------------------
A------------------------------------------------------------
E------------------------------------------------------------


E------------------------------------------------------------
B------------------------------------------------------------
G-12s11s12s1412v---------------------------------------------
D------------------------------------------------------------
A------------------------------------------------------------
E------------------------------------------------------------

v:hacer vibrar la cuerda
po:tirar la cuerda
bends full:levantar la cuerda al maximo

pd:es primera vez que pongo un solo en el atame
   hay algunos detalles pero es una buena base para que ustedes
   la perfeccionen...chao bendiciones.
Suggest correction
Give kudos to tab author, rate the tab!
1 2 3 4 5
comments
print report bad tab
guest
You may want to rate the tab now too:
select rating
Wanna post a correction for this tab? Suggest correction