Oops, an error
Loading. Please wait.

Sana Nuestra Tierra Chords

version 2
version 2

Whole song

164 views 3 this week
no commentswrite comment
1 2 3 4 5
3 more votes to show rating
add to favorites
launch autoscroll
font size
0
reset
transpose
0
reset
simplify chords
display chords
guitar tuner
Autoscroll
slow
fast
+/-
esc
set tempo
stop
Help us to improve Ultimate-Guitar.com Take our survey!
×
PRIMERO: GRACIAS AL HERMANO ELIEL QUE SUBIO ÉSTA CANCIÓN
SOLO LE MODIFIQUE UNAS PEQUEÑECES EN EL CORO, EN EL PUENTE
Y EN EL SOLO DE GUITARRA.


Intro:  // G - Em - C - Am - D //

Riff (overdivre)
e|--------------|---------------|------------|------------||
B|--------------|---------------|------------|------------||
G|--------------|---------------|--7--5-4----|--7--5-4----||
D|--7s5-5--7/9--|---7s5-5--7/9--|----------5-|----------7-||
A|--------------|---------------|------------|------------||
E|--------------|---------------|------------|------------||


Estrofa:
G        Em       C
Vengo a Ti, guíame
    D           G
Santifícame en Ti
      Em                 C
Yo quiero andar en Tu verdad
G     Em       C
Tómame, abrázame
                         Am7
Mi corazón hoy vuelve a Ti
         D
Solo a Ti


Pre-Coro:
 G                  Em
Quiero humillarme, buscar Tu rostro
 C                Am         D
Hoy me arrepiento delante de Ti
 G                 Em
Vengo a invocarte, inclina Tu oído
   C              Am       D
Escucha y perdona mi rebelión

Coro:
 Am7          Em        D
     //Sana nuestra Tierra//

Intro-

Estrofa

Pre-Coro

Coro

Puente:

Eb       F          G
  Escucha hoy mi oración
Eb        F          D
  A Ti levanto mi clamor

Solo: //// C - D - Em - D ////  Em - D

 Pre-Coro

||||Coro||||

              G
... Con tu amor

Final: - (acordes de la intro)

e|--------------|---------------|------------|------------||
B|--------------|---------------|------------|------------||
G|--------------|---------------|--7--5-4----|--7--5-4----||
D|--7s5-5--7/9--|---7s5-5--7/9--|----------5-|----------7-||
A|--------------|---------------|------------|------------||
E|--------------|---------------|------------|------------||
Suggest correction
Give kudos to tab author, rate the tab!
1 2 3 4 5
comments
print report bad tab
guest
You may want to rate the tab now too:
select rating
Wanna post a correction for this tab? Suggest correction