Oops, an error
Loading. Please wait.

Se Oye En Las Naciones Bass

61 views 1 this week
no commentswrite comment
1 2 3 4 5
3 more votes to show rating
add to favorites
launch autoscroll
font size
0
reset
guitar tuner
×
Best way to learn
"Se Oye En Las Naciones"
Autoscroll
slow
fast
+/-
esc
set tempo
stop
Afinación: G D A E

  Intro
G |---------------------------------------------------3---------------
D |-----5----3-------5----3-------5----3-----5----3-------------------
A |-------3h5----------3h5----------3h5--------3h5--5-----------------
E |-3------------3------------3------------3--------------------------

G |---------------------------------------------------------3--|
D |-----5----3-------5----3-------5----3-----------------------|
A |-------3h5----------3h5----------3h5---------5-4-3---3-5----|
E |-3------------3------------3------------3----------5--------|

  Versos
G |-------------------------------------------------------------------
D |-----5----3-------5----3-------5----3-------5-------------5----3---
A |-------3h5----------3h5----------3h5-----------3------------3h5----
E |-3------------3------------3------------3--------------3-----------

G |--------------------------------------------5----3-------5----3----
D |-----5----3-------5----3-------5----3---------3h5----------3h5-----
A |-------3h5----------3h5----------3h5----3------------3-------------
E |-3------------3------------3---------------------------------------

G |-----5----3-----5----------3---------------------------------------
D |-------3h5-------------3-----------5----3-------5----3-------5----3
A |-3------------3----3h5---5-----------3h5----------3h5----------3h5-
E |-------------------------------3------------3------------3---------

G |----------------3----|
D |---------------------|
A |----5-4-3---3-5------|
E |-3--------5----------|

  Coros A
G |----------------------------------------------------------------
D |------5---5--------3---3--------2---2---1---1-1-1-1-1-1---------
A |----------------------------------------------------------------
E |-3------3-----1------1-----0------0-----------------------------

G |-----------------------------------------------------------------
D |------5---5--------3---3--------2---2---1---1-1-1-1-1-1----------
A |-----------------------------------------------------------------
E |-3------3-----1------1-----0------0------------------------------

G |----------------------|
D |----------------------|
A |-5---5-5-5-5-5-5--5\--|
E |----------------------|

  Coros B
G |-----------------------------------------------------------------
D |-----------------------------------------------------------------
A |-1----------------1--3--1--------------------3-3---3-3--3-------
E |----3---3-3---3------------3---3-3---3---3-----------------------


G |--------------5s11------------------------------------------------
D |-----------7-------8-10-10s12-------------------------------------
A |-1-3-3s5-----------------------1----------------1--3--1-----------
E |----------------------------------3---3-3---3------------3---3-3--


G |------------------------------------|
D |------------------------------------|
A |--------3-3---3-3--3---1-3-3s5--5---|
E |-3--3-------------------------------|

Desde aquí todo se repite igual.
A Continuación los adornos en el tiempo exacto.

  (2:17)
G |-------5---7s11---|
D |--5?-7-----8s12---|
A |------------------|
E |------------------|

  Puente durante solo de saxofón
G |-------------------------------------------------------------------
D |-------5----3------5----3------5----3---5-5----3-------5----3------
A |---------3h5---------3h5---------3h5--------3h5----------3h5-------
E |--3-3---------3-3---------3-3---------3-----------3-3--------------

G |-------------------------------------------5----3--------5----3----
D |-------5----3------5----3---5--5--5----------3h5-----------3h5-----
A |---------3h5---------3h5--------------3-3----------3-3-------------
E |--3-3---------3-3--------------------------------------------------

G |-------5----3-----5------3-----------------------------------------
D |---------3h5------------3--------5----3-------5----3-------5----3--
A |--3-3----------3-----3h5-----------3h5----------3h5----------3h5---
E |----------------------------3-3----------3-3----------3-3---------3

G |-------------3---|
D |-----------------|
A |-5-4-3---3-5-----|
E |-------5---------|

  (3:52) Final
G |-----------------------------------------------------------------
D |-----------------------------------------------------------------
A |-1----------------1--3--1--------------------3-3---3-3--3--------
E |----3---3-3---3------------3---3-3---3---3-----------------------

                                                   Remate Final
G |-------------------------3---------------3-----|------------|----|
D |---------------------------5----------3-----5--|------------|----|
A |-1-3-3s5-----5-4-3---3-5------3-4-5------------|------------|----|
E |-------------------5---------------------------|------------|--3-|
Suggest correction
Give kudos to tab author, rate the tab!
1 2 3 4 5
comments
print report bad tab
guest
You may want to rate the tab now too:
select rating
Wanna post a correction for this tab? Suggest correction