Oops, an error
Loading. Please wait.

Si Puedes Creer Bass Tab

52 views 1 this week
no commentswrite comment
1 2 3 4 5
3 more votes to show rating
add to favorites
launch autoscroll
font size
0
reset
guitar tuner
×
Best way to learn
"Si Puedes Creer"
Autoscroll
slow
fast
+/-
esc
set tempo
stop
Cualquier duda me escriben al correo diego_jc7@


Intro

G------------------------------------------
D-----------------------------------5S-7---
A-----5---3--------2---2S-10---------------
E--0---------------------------5-----------


Estrofa

G-----------------------------------------------------------------------
D-------------------4------------------4----------------------5-5-7-----
A--5---5-5-----5-7---------3------5-7-------7--5----4-------5-5-5-------
E---------------------3------3--------------------------3----------3-5--


Coro

G-----------------------------------------------------------
D------------------4------------------5-7----4--------------
A---5---5-5----5-7------------------------------------2--4--
E--------------------3----3-3----5---------------0--2-------

G-------------------------------------------------------------
D------------------4------------------9-7---4----5----7-------
A---5---5-5----5-7-------------------7-7----------------------
E--------------------3----3-3----5----------------------------


Solo

G-------------------/-----------5-----5-4--------
D----------2-4------/----------5-----5-5----5--7-
A--2----------------/---3------------------------
E-----5-------3-5---/----------------------------


Se repite igual las estrofas


Coro (diferente al primero)

G-----------------------------------------------------------------
D------------------4--------------7---7-7-----------5-5-5---5--7--
A---5---5-5----5-7---------------------------------5-5-5---5------
E--------------------3----3-3----------------2----3---------------

G--------------------------------------------------
D------------------4---------5-4-------------------
A---5---5-5----5-7---------------7-5-4---2---------
E--------------------3------------------------5----

Luego hay varias notas un tanto confusas para mi,
pero si las puedo sacar, entonces las añado


Final

G--------------------------------------
D-----2-4----2---7--------10---8-------
A--2--------------------8----8-------5-
E---------3---------6-------------5----


Y se queda en D hasta terminar la canción
Suggest correction
Give kudos to tab author, rate the tab!
1 2 3 4 5
comments
print report bad tab
guest
You may want to rate the tab now too:
select rating
Wanna post a correction for this tab? Suggest correction