Oops, an error
Loading. Please wait.

Un Adorador Tab

version 1
version 1

Whole song

350 views 12 this week
no commentswrite comment
1 2 3 4 5
3 more votes to show rating
add to favorites
launch autoscroll
font size
0
reset
how to read this tab
guitar tuner
×
Best way to learn
"Un Adorador"
Autoscroll
slow
fast
+/-
esc
set tempo
stop
Un Adorador  /25 Aniversario conmemorativos 2011 [Tab] (SI, B)

Esta es la tablatura de un Adorador de Marcos Witt wn los 25
 aniversario conmemorativos

los efectos que uso es un compresor una distorcion DS y un Daley a
tiempo
ustedes pueden modificar los efectos y la tablatura si quieren

este es mi correo si tiene una duda: freddy529@

Intro:
E|---------|---------------------------|-------------|--------------------|
B|-7-------|-7-------------------------|-7-----------|-7------------------|
G|---9-8---|---9-8---------------------|---9-8-----8-|----9-8-------------|
D|-------9-|-------s9-s7--s9-s7--s9-s7-|--------9----|---------9----------|
A|---------|---------------------------|-------------|---------------s7-s9|
E|---------|---------------------------|-------------|--------------------|

 B           E                         F#
Tú le diste al hombre un lenguaje muy bello
       D |-------8--------------------|
       A |--9-11---11--9--11----------|
       E |---------------------7(B)---|

B                   E        F#
Tú nos diste la música para alabarte
       D |------6-----------------|
       A |--7-9---9-7-6-----------|
       E |---------------4(G#m)---|

G#m         D#m     E        B
Estoy agradecido y quiero cantarte
       A |---------------------|
       E |---7-9-11-9-7-6-4----|

G#m         D#m     E          F#
Estoy agradecido y quiero adorarte.

B                 E       F#
//yo quiero ser un adorador oh?
B                  E   F#
Yo quiero ser un adorador oh...
    G#m                    D#m
Contemplar la hermosura de tu santidad
    E                 F#
Adorarte en espíritu y en verdad
G#m              E  F#        B
Yo quiero ser Señor.....un adorador//
Suggest correction
Give kudos to tab author, rate the tab!
1 2 3 4 5
comments
print report bad tab
guest
You may want to rate the tab now too:
select rating
Wanna post a correction for this tab? Suggest correction