Oops, an error
Loading. Please wait.

Un Adorador Tab

version 2
version 2

Whole song

86 views 1 this week
no commentswrite comment
1 2 3 4 5
3 more votes to show rating
add to favorites
launch autoscroll
font size
0
reset
how to read this tab
guitar tuner
Autoscroll
slow
fast
+/-
esc
set tempo
stop
Help us to improve Ultimate-Guitar.com Take our survey!
×
 Intro.

 E-------------------------------------
 B----7-4-5-4-2-4----------------------
 G--4-------------2-----2-4-------2-4--
 D------------------2h4-----2-2h4------
 A-------------------------------------
 E-------------------------------------

 E------------------------------------
 B----7-4-5-4-2-4---------5-4v--------
 G--4-------------2---4-2-------------
 D------------------4-----------------
 A------------------------------------
 E------------------------------------

 E-------------------------------------
 B----7-4-5-4-2-4----------------------
 G--4-------------2-----2-4-------2-4--
 D------------------2h4-----2-2h4------
 A-------------------------------------
 E-------------------------------------

 E------------------------------------
 B----7-4-5-4-2-4---------------------
 G--4-------------4v---2--4-----------
 D---------------------2--4-----------
 A---------------------0--2-----------
 E------------------------------------

 Verso

 Tu diste al hombre un lenguaje muy bello
 E-------------------------------------------
 B-------------------------------------------
 G-4-4-4-4-----------------------------------
 D-4-4-4-4--2-2-2-2--4-4-4-4-----------------
 A-2-2-2-2--2-2-2-2--4-4-4-4--6-8-8s9-8-6-8--
 E----------0-0-0-0--2-2-2-2-----------------

 Tu nos diste la musica para adorarte
 E-------------------------------------------------
 B-------------------------------------------------
 G-4-4-4-4-----------------------------------------
 D-4-4-4-4--2-2-2-2--4-4-x-x-4-4-4-4---------------
 A-2-2-2-2--2-2-2-2--4-4-x-x-4-4-4-4---------------
 E----------0-0-0-0--2-2-x-x-2-2-2-2--2-2-2-4-6-4--


 Estoy agradecido, y hoy quiero cantarte
 E--------------------------------------
 B--------------------------------------
 G--------------------------------------
 D--------8 x8-9-x8---------------------
 A--6-X8--6----7----9----4-5s6-4--------
 E--4---------------7--7---------7-6----

 Estoy agradecido, y hoy quiero adorarte
 E------------------------------
 B------------------------------
 G------------------------------
 D--------8-x8--9-x8--11-x16----
 A--6-X8--6-----7-----9---------
 E--4---------------------------

 Coro.

 Yo quiero ser un adorador wuoo
 E----------------------------
 B----------------------------
 G--4-----4-----4------6------
 D--4-x8--1-x8--2-x12--4-x4---
 A--2-----2-----2------4------
 E----------------------------

 Yo quiero ser un adorador wuooo
 E------------------------------
 B------------------------------
 G--4-----4-----4---------------
 D--4-x8--1-x8--2-x14-----------
 A--2-----2-----2---------------
 E------------------------------


 Contemplar la hermosura de Tu Santidad
 E----------------------------------------
 B----------------------------------------
 G----13s15-11-11s13v--13s16-16s18v-15v---
 D----------------------------------------
 A----------------------------------------
 E----------------------------------------

 Adorarte en Espiritu y en verdad
 E-------------------------------
 B-------------------------------
 G--13v-11v--13s15-11-11s13------
 D-------------------------------
 A-------------------------------
 E-------------------------------

 Yo quiero ser Señor oooo un adorador
 E------------------------------------
 B------------------------------------
 G-------------11-9-9-9-9-11-11v-----
 D------------------------------------
 A------------------------------------
 E------------------------------------

 Yo quiero ser un adorador wuoo
 E----------------------------
 B----------------------------
 G--4-----4-----4------6------
 D--4-x8--1-x8--2-x12--4-x4---
 A--2-----2-----2------4------
 E----------------------------

 Yo quiero ser un adorador wuooo
 E------------------------------
 B------------------------------
 G--4-----4-----4---------------
 D--4-x8--1-x8--2-x14-----------
 A--2-----2-----2---------------
 E------------------------------

 COntemplar la hermosura de Tu Santidad
 E--------------------------------------
 B--------------------------------------
 G--16-15-11-11s13--13s16-16s18v-15v----
 D--------------------------------------
 A--------------------------------------
 E--------------------------------------

 Adorarte en Espiritu y en verdad
 E-------------------------------
 B-------------------------------
 G--13v-11v-----13-15-11-11s13v--
 D-------------------------------
 A-------------------------------
 E-------------------------------

 Yo quiero ser Señor uooo
 E-----------------------------------
 B-----------------------------------
 G-------------11-9--9-9-9-11-11v/x--
 D-----------------------------------
 A-----------------------------------
 E-----------------------------------

 Un adorador
 E----------------
 B----------12vH--
 G----------------
 D----------------
 A----------------
 E----------------

 H:armonico

 alguna sugerencia este es mi correo
 manuelito_9595@ que
 Dios les bendiga
Suggest correction
Give kudos to tab author, rate the tab!
1 2 3 4 5
comments
print report bad tab
guest
You may want to rate the tab now too:
select rating
Wanna post a correction for this tab? Suggest correction