Oops, an error
Loading. Please wait.

Yo Creo Tab

version 1
version 1

Whole song

92 views 1 this week
no commentswrite comment
1 2 3 4 5
3 more votes to show rating
add to favorites
launch autoscroll
font size
0
reset
how to read this tab
guitar tuner
×
Best way to learn
"Yo Creo"
Autoscroll
slow
fast
+/-
esc
set tempo
stop
Buenas noches..=D

aki les dejo ahmm..esta cancioncita que la vdd
esta muy paadre! y ps los riff que hace roberto prado
ahmm son los mejores! jajajja XD

ai chekenlo y ps ya saben..si tienen alguna duda
pues escribanme a bggs15@ y ahi estare
contestando sus preguntas, regaños ajja correcciones
..y si es pa mejorar adelante

ah y no se olviden d calificarla para ir mejorando..!

un saludo desde coatzacoalcos veracruz

Monte Hermon,, XD

+

bggs15@

((( RECOMENDACION..ESCUCHEN MUY BIEN LA CANCION
Y ANALICEN POKO A POKO Y DESPACIO CADA UNO DE LOS TABS))
Yo Creo


INTRO: 2 VECES

E -------------------------------------------
A -5-5---------------------------------------
D -------7-----7-----7------4-5-7------------
G -----5---5-5---5-5---5-5-------------------
B -------------------------------------------
e -------------------------------------------

E -------------------------------------------
A -5-5---------------------------------5-----
D -------7-----7-----7--------------4--------
G -----5---5-5---5-5---5-5---5h7p5-----------
B -------------------------------------------
e -------------------------------------------

VERSO
D
Yo creo en el poder de Dios
G                            G   D/F#
Yo creo en su resurrección
  Em             G
yo creo que regresara y que a su pueblo llevara

((LAS X..SIGNIFICA QUE AHI SE MUTEAN LAS CUERDAS..
Y SE OYE UN FEEDBACK..INTENTEN))

E -------------------------------------------
A -5--5-5-5-5-5-5--X-X-X-X-X-X--8-7-5--------
D -7--7-7-7-7-7-7--X-X-X-X-X-X---------------
G -----------------X-X-X-X-X-X---------------
B -----------------X-X-X-X-X-X---------------
e -----------------X-X-X-X-X-X---------------

E -------------------------------------------
A -5--5-5-5-5-5-5-----------8-7-5------------
D -7--7-7-7-7-7-7-------7-5------------------
G ------------------5-4----------------------
B -------------------------------------------
e -------------------------------------------

CORO

D                     G
Cantamos, alabamos,    danzamos, exaltamos,
Em        G  (SILENCIO)        D
gritamos todos al señor

E -------------------------------------------
A -5--5-5-5-5-5-5---5-7S9-------7h9-5--------
D -7--7-7-7-7-7-7---------7-9-7--------------
G -------------------------------------------
B -------------------------------------------
e -------------------------------------------
D                     G
Bailamos, brincamos,  saltamos gozamos,
Em        G(SILENCIO)          D
gritamos todos al señor

RIFF

E -------------------------------------------
A -5-5---------------------------------------
D -------7-----7-----7------4-5-7------------
G -----5---5-5---5-5---5-5-------------------
B -------------------------------------------
e -------------------------------------------

E -------------------------------------------
A -5-5---------------------------------5-----
D -------7-----7-----7--------------4--------
G -----5---5-5---5-5---5-5---5h7p5-----------
B -------------------------------------------
e -------------------------------------------

verso

D
Yo creo en su redención
G                    G D/F#
Yo creo en su salvación

Em                  G
Yo creo que su hijo dio y por su muerte vida dio


E -------------------------------------------
A -5--5-5-5-5-5-5--X-X-X-X-X-X--8-7-5--------
D -7--7-7-7-7-7-7--X-X-X-X-X-X---------------
G -----------------X-X-X-X-X-X---------------
B -----------------X-X-X-X-X-X---------------
e -----------------X-X-X-X-X-X---------------

E -------------------------------------------
A -5--5-5-5-5-5-5-----------8-7-5------------
D -7--7-7-7-7-7-7-------7-5------------------
G ------------------5-4----------------------
B -------------------------------------------
e -------------------------------------------

CORO

D                     G
Cantamos, alabamos,    danzamos, exaltamos,
Em        G  (SILENCIO)        D
gritamos todos al señor

E -------------------------------------------
A -5--5-5-5-5-5-5---5-7S9-------7h9-5--------
D -7--7-7-7-7-7-7---------7-9-7--------------
G -------------------------------------------
B -------------------------------------------
e -------------------------------------------

D                     G
Bailamos, brincamos,  saltamos gozamos,
Em        G(SILENCIO)          D
gritamos todos al señor

riff: 2 veces

E ---------------------------5---------------
A -5--5-5-5-5--5-5-5-5-5-5-----3-5-----------
D -7--7-7-7-7--7-7-7-7-7-7-------------------
G -------------------------------------------
B -------------------------------------------
e -------------------------------------------

Aqui empíeza la frase de " Yo creo, Yo creo..!

Las notas son:

D - G - A - G

y hay un pequeño Riff que se toca y es este

((ESTA PARTE ESCUCHENLA BIEN PORQUE LO HACE RAPIDO
Y CHEKEN EL TIEMPO PARA QUE LES SALGA..))

E -------------------------------------------
A -------------------------------------------
D --5-6-7--------------7---------------------
G -------5-6-7---7-6-5-----------------------
B ------------6----------8-6-7---------------
e -------------------------------------------

Aqui va otra vex

" Yo creo, Yo creo..!
Las notas son:

D - G - A - G

y empieza el coro en D
(( va un requinto que la vd SE oye muy al fondo..
asi que eso queda asu consideracion)) escuchenlo


CORO

D                     G
Cantamos, alabamos,    danzamos, exaltamos,
Em        G  (SILENCIO)        D
gritamos todos al señor

E -------------------------------------------
A -5--5-5-5-5-5-5---5-7S9-------7h9-5--------
D -7--7-7-7-7-7-7---------7-9-7--------------
G -------------------------------------------
B -------------------------------------------
e -------------------------------------------

D                     G
Bailamos, brincamos,  saltamos gozamos,
Em        G(SILENCIO)          D
gritamos todos al señor


riff: 4 veces

E ---------------------------5---------------
A -5--5-5-5-5--5-5-5-5-5-5-----3-5-----------
D -7--7-7-7-7--7-7-7-7-7-7-------------------
G -------------------------------------------
B -------------------------------------------
e -------------------------------------------

riff final:

E -------------------------------------------
A -------------------------------------------
D --5-6-7--------5-6-7----------5h7-5--------
G -------5-6-7---------5-7-------------------
B ------------6------------8-7---------------
e -------------------------------------------


Y ya muy al final..va esto..pero es rapido

E -------------------------------------------
A -------------------------------------------
D --3-5---5----------------------------------
G ------3------------------------------------
B -------------------------------------------
e -------------------------------------------

BUENO ESTA ES LA CANCION DE YO CREO DEL ALBUM SOBRENATURAL
QUE A MI PARECER ES DE LOS MEJORES DE MARCOS..!

CUALQUIER DUDA COMENTARIO,,CORRECCION SON BIENVENIDOS!..AHMM!!

DIOS LES BENDIGA MUSHO!!:d

ATTE: JORGE (GUITARRO007)

bggs15@
Suggest correction
Give kudos to tab author, rate the tab!
1 2 3 4 5
comments
print report bad tab
guest
You may want to rate the tab now too:
select rating
Wanna post a correction for this tab? Suggest correction