Oops, an error
Loading. Please wait.

Yo Creo Tab

version 2
version 2

Whole song

94 views 1 this week
no commentswrite comment
1 2 3 4 5
3 more votes to show rating
add to favorites
launch autoscroll
font size
0
reset
how to read this tab
guitar tuner
×
Best way to learn
"Yo Creo"
Autoscroll
slow
fast
+/-
esc
set tempo
stop
Intro:

    D7                           G
 G|-----5-5-5-5-5---5----------------5-5-5-5-5---5-5s7s5---|
 D|---------------7---4-4-4-5-7----------------7---------4-|
 A|-5-5--------------------------5-5-----------------------|

       D
Verso:   Yo creo en el poder de Dios
       G
         Yo creo en su resurrección
G-D/F#-Em                      G
         Yo creo que Él regresará
                                D
         Y que a su pueblo llevará

    D
 G|-------------------------------------4s5-4-2---------|
 D|-7-7-7-7-7-----------------7-7-7-7-7---------5-3-2---|
 A|-5-5-5-5-5-(7)(7)(7)(7)-8--5-5-5-5-5---------------5-|

      D
Coro:   Cantamos, alabamos
      G
        Danzamos, exaltamos
      Em          G          D
        Gritamos todos al Señor

    D
 D|-7-7-7-7-7-7-------7-9p7---|
 A|-5-5-5-5-5-5-5-7s9-------7-|

      D
        Bailamos, brincamos
      G
        Saltamos, gozamos
      Em          G          D
        Gritamos todos al Señor

Intro.

       D
Verso:   Yo creo en su redención
       G
         Yo creo en su salvación
G-D/F#-Em                     G
         Yo creo que su hijo dio

                               D
         Y por su muerte vida dio

    D
 G|-------------------------------------4s5-4-2---------|
 D|-7-7-7-7-7-----------------7-7-7-7-7---------5-3-2---|
 A|-5-5-5-5-5-(7)(7)(7)(7)-8--5-5-5-5-5---------------5-|

Coro.

    D5                    A5  C5
 G|-7-7-7-7-7-7-7-7-7-7-------5-|
 D|-7-7-7-7-7-7-7-7-7-7---7---5-|
 A|-5-5-5-5-5-5-5-5-5-5---7---3-|
 E|-----------------------5-----|

         D
Puente:  Yo creo, yo creo
         G
         Yo creo, yo creo
         A
         Yo creo
        G
         Yo creo en el poder de Dios

    G
 D|-------------3---------5-3-4-|
 A|-------3-4-5---5-4-3---------|
 E|-3-4-5---------------5-------|

   Luego del puente se escucha algo como esto:

 E|-----------------------8----------------|
 B|-------------------------8p6-10-8p6-8-6-|
 G|-5-7p5-7p5-7p5-7p5-5s7------------------|

   No estoy 100% de que sea así, pero ustedes vean si les sirve.

Final:

 G|------------------------4s5------------|
 D|-------------3--------------5-4--------|
 A|-------3-4-5----------3------------3-5-|
 E|-3-4-5----------3-4-5------------5-----|

 D|------3---|
 A|-3-5----5-|

   Los números en paréntesis que están después de los versos son
   Armónicos en esos espacios.
   Espero que les sirva.
   Bendiciones.
Suggest correction
Give kudos to tab author, rate the tab!
1 2 3 4 5
comments
print report bad tab
guest
You may want to rate the tab now too:
select rating
Wanna post a correction for this tab? Suggest correction