Oops, an error
Loading. Please wait.

Heartbeat Tab

118 views 33 this week
no commentswrite comment
1 2 3 4 5
2 more votes to show rating
add to favorites
launch autoscroll
font size
0
reset
how to read this tab
guitar tuner
Autoscroll
slow
fast
+/-
esc
set tempo
stop
Help us to improve Ultimate-Guitar.com Take our survey!
×
Thank you for trying it out! Please leave it a rating/comment and give me suggestions too!

I have the lyrics below the tabs, and the tabs are basically the same for the whole thing
Just repeat them until the part ends. 

[Intro]
e|-----8--7------0--5-----8--7--12--3--5---|
B|-----------------------------------------|
G|-----------------------------------------|        
D|---7----5---------3---7----5--10--2--3---|
A|-------------3---------------------------|
E|-----------------------------------------|

[Verse]
e|-----8--7------0--5-----8--7--12--3--5---|
B|-----------------------------------------|
G|-----------------------------------------|       
D|---7----5---------3---7----5--10--2--3---|
A|-------------3---------------------------|
E|-----------------------------------------|

[Pre-Chorus] (aka the "I took it for granted that you loved me the same part)
e|-----8--7------0--5-----8--7-----Palm----|
B|---------------------------------mute----|  
G|----------------------------------two----|        
D|---7----5---------3---7----5-----random--|
A|-------------3------------------chords---|
E|----------------------------------here---|
Where it says palm mute two random chords here, put down any fingers you would like, and then palm mute the
chord so you can not hear the notes, just the strumming

[Chorus]
e|-----8--7------0--5-----8--7--12--3--5---|
B|-----------------------------------------|  
G|-----------------------------------------|        
D|---7----5---------3---7----5--10--2--3---|
A|-------------3---------------------------|
E|-----------------------------------------|

Outro (the end) 
e|-----8--7------0--5-----8--7--12--3--5---|
B|-----------------------------------------|  
G|-----------------------------------------|        
D|---7----5---------3---7----5--10--2--3---|
A|-------------3---------------------------|
E|-----------------------------------------|

[Verse]
You said "Why am I holding on baby" (ooh)
I would never back down, are you walking out of my life
Saying you really don't love me (ooh)
Baby you don't mean that, you remember all that we had

[Pre-Chorus]
I took it for granted that you loved me the same, but I 
gotta keep on talking

[Chorus]
Listen to my heartbeat-beat-beat
Saying do you love me-me-me
But I'm lying here alone so I put you in a song beside my heartbeat-beat-beat

[Verse]
I know I haven't been the best lately (ooh)
And I really know now I should give you all of my time (yeah)
You really do deserve better (ooohh)
Gotta get you somehow, can we start overagain now?

[Pre-Chorus]
I took it for granted that you loved me the same, but I 
gotta keep on talking

[Chorus]
Listen to my heartbeat-beat-beat
Saying do you love me-me-me
But I'm lying here alone so I put you in a song beside my heartbeat-beat-beat

[Outro]
So listen to my heartbeat-beat-beat
Saying do you love me
Oh, saying do you love me
But I'm lying here alone so I put you in a song beside my heartbeat-beat-beat
Saying do you love me-me-me
But I'm lying here alone so I put you in a song beside my heartbeat-beat-beat
Suggest correction
Give kudos to tab author, rate the tab!
1 2 3 4 5
comments
print report bad tab
guest
You may want to rate the tab now too:
select rating
Wanna post a correction for this tab? Suggest correction