Oops, an error
Loading. Please wait.

A Cloak Of Elvenkind Tab

version 1
version 1

Whole song

Interactive

18,458 views 33 this week
5 commentsread comments
1 2 3 4 5
x 30
add to favorites
launch autoscroll
font size
0
reset
how to read this tab
guitar tuner
Autoscroll
slow
fast
+/-
esc
set tempo
stop
Help us to improve Ultimate-Guitar.com Take our survey!
×
marcy playground
a cloak of elvenkind
album: marcy playground
submitted by matt burgess


A Cloak Of Elvenkind 
G         Em        C         D
      
e ----3---- ----0---- ----0---- ----2----
B ----0---- ----0---- ----1---- ----3----
G ----0---- ----0---- ----0---- ----2----
D ----0---- ----2---- ----2---- ----0----
A ----2---- ----2---- ----3---- ----0---- 
E ----3---- ----0---- --------- ---------


Riff 1 

e ---------------------------------------------
B ---------------------------------------------
G ---------------------------------------------
D ------------------------2-------------4-5---- 
A ------2--------2----3-3---3(slide)5-5-------- 
E --3-3---3--0-0---0--------------------------- 

Riff 2

e -------------------
B -------------------
G -------------------
D ---0h2-0-----------
A ----------3--------
E -------------------


  G                  Em
A cloaking robe of elvenkind
  C              D
Hangs in my wardrobe behind
 G                  Em
All the thing that mother said
      C            D
Were proper for a boy


chorus:

           G  D  C                G    D    C
And I know I, I, I could not say why, why, why
               G   D  C           G  D  C  (Riff 2)
On this summer evening.  Oh-oh-oh Oh Oh Oh


G                 Em
Sixteen books of magic spells
  C                 D
stacked below the cloak of elves
      G               Em
And sixteen books on magic spells
      C         D
So elegantly bound


(chorus)


    G   D   C    G                      C
And I know something...something about you
         G  D  C
Oh-oh-oh Oh oh oh

    G   D   C    G                      C
And I know something...something about you
         G  D  C   (Riff 1) 4x (play with chords)
Oh-oh-oh Oh oh oh  Oh....


  G                  Em
A cloaking robe of elvenkind
  C              D
Hangs in my wardrobe behind
 G                  Em
All the thing that mother said
      C            D
Were proper for a boy
Suggest correction
comments
print report bad tab
5 comments total. Showing first comments.
0 reply
mistaman 295 Nov 17, 2005 05:31 PM

very nicely done

0 reply
BlocParty 63 Apr 13, 2007 11:08 PM

Touchée, nice one.

-1 reply
XPiratemagXD 21 May 30, 2009 11:18 AM

instead of e --------
b -------- isnt it supposed to be e--------
g -------- b--------
d -------- g--------
a -----2-- d--------
e--3-3--3 a-----2--
e--4-4--4

guest
You may want to rate the tab now too:
select rating
Wanna post a correction for this tab? Suggest correction