Oops, an error
Loading. Please wait.

Blood In Alphabet Soup Tab

version 1
version 1

Whole song

1,136 views 1 this week
1 commentread comment
1 2 3 4 5
2 more votes to show rating
add to favorites
launch autoscroll
font size
0
reset
how to read this tab
guitar tuner
Autoscroll
slow
fast
+/-
esc
set tempo
stop
Help us to improve Ultimate-Guitar.com Take our survey!
×
Author
Band- Marcy Playground
Song- Blood in Alphabet Soup
Album- MP3
Tabber: Jon Green

This is my version of Marcy Playground song Blood in Alphabet Soup.
The solo isn’t 100% correct but I think it is close. But I tabbed this by ear
and off a live recording on Youtube. Let me know if you think there is
something wrong and I will correct it. 

Tuning: EADGBe

Intro: 
e|---------------------------------------------------------------|
B|---------------------------------------------------------------|
G|---5--5-xx----------5--5-xx----------5--5-xx-------------------|
D|-5-5--5-xx--666-5---5--5-xx--666-5---5--5-xx--666-5--55555555--| X2
A|-5-3--3-xx--444-3---3--3-xx--666-5---3--3-xx--666-5--55555555--|
E|-3----------444-3------------444-3------------444-3--33333333--|
   ^
   Played only on first note of song
	
Verses:
e|---------------------------------------------------------------|
B|---------------------------------------------------------------|
G|---5--5-xx----------5--5-xx----------5--5-xx-------------------|
D|---5--5-xx--666-5---5--5-xx--666-5---5--5-xx--666-5--55555555--| X2
A|---3--3-xx--444-3---3--3-xx--666-5---3--3-xx--666-5--55555555--|
E|------------444-3------------444-3------------444-3--33333333--|

Chorus:
e|-------------------------------|
B|-------------------------------|
G|--5--5-xx---88---------/8---8--|
D|--5--5-xx---88--5555---/8---8--| x3
A|--3--3-xx---66--5555---/6---6--|
E|----------------3333-----------|

e|---------------------------------|
B|---------------------------------|
G|--5--5-xx---88-------------------|
D|--5--5-xx---88--5~/6~----------5-|
A|--3--3-xx---66--5~/6~----------5-|
E|----------------3~/4~----------3-|
                  No sorry...    ^
			         Leads into the verse again.

Solo : (I got it as close as I could)
e|-----------------------------------|
B|-----------------------------------|
G|-----------------------------------|
D|----------------8------------------|
A|----2-3----3/6-----6-----6---6---5-|
E|--3--------------------4---4---3---|

Final Verse:
e|---------------------------------------------------------------|
B|---------------------------------------------------------------|
G|---5--5-xx----------5--5-xx----------5--5-xx-------------------|
D|---5--5-xx--666-5---5--5-xx--666-5---5--5-xx--666-5--55555555--| X4
A|---3--3-xx--444-3---3--3-xx--666-5---3--3-xx--666-5--55555555--|
E|------------444-3------------444-3------------444-3--33333333--|

End with:
e|------|
B|------|
G|------|
D|-5~---|
A|-5~---|
E|-3~---|
Suggest correction
Give kudos to tab author, rate the tab!
1 2 3 4 5
comments
print report bad tab
1 comment total.
0 reply
captainviolence 10 Sep 13, 2013 03:25 PM

Solo is:

e|-------------------------------------------------------
B|-------------------------------------------------------
G|-------------------------------------------------------
D|---------5-----8-------------------5-----8-------------
A|---1-2-3---3/6---6---5-----5-1-2-3---3/6---6---5-----5-(1-2-3, etc)
E|-3-----------------3---3-3-------------------3---3-3---

guest
You may want to rate the tab now too:
select rating
Wanna post a correction for this tab? Suggest correction