Oops, an error
Loading. Please wait.

Sex And Candy Bass Tab

version 2
version 2

Whole song

Interactive

18,015 views 69 this week
no commentswrite comment
1 2 3 4 5
excellent!
x 10
add to favorites
launch autoscroll
font size
0
reset
guitar tuner
Autoscroll
slow
fast
+/-
esc
set tempo
stop
Help us to improve Ultimate-Guitar.com Take our survey!
×
Contributor
Difficulty
novice
Sex and Candy – Marcy Playground
Tabbed by Chris Hogarth

The only other bass tab for this song was a piece of retarded S H I T. So for the 
of everyone I retabbed it %100 perfect. Enjoy.

Verse 1  x4                   (tacet 4th time) (4th time)
|----------|----------|-------|--------||--------|-------||
|*---------|----------|-------|-------*||--------|-------||
|*-2-2-2-2-|0-2-0-2-2-|-------|-------*||--------|-------||
|----------|----------|-3-3-3-|-2-2-2--||-2-2-2-2|2-2-2-2||

Chorus x3                       (after 3rd time)
|-------|-------|------|------||---------||
|*------|-------|------|-----*||---------||
|*------|--2--2-|------|-----*||---------||
|-------|-------|-3--3-|-5--5-||-5-5-5-5-||

Post-Chorus x 2                                  (after 2nd time)
|----------|-----------|-----------|-----------||--------|-------||
|----------|-----------|-----------|----------*||--------|-------||
|-5-5-5--5-|-----------|-----------|----------*||--------|-------||
|----------|-5-5-5—5---|-7--7-7--7-|-3--3-3--3-||-2-2-2-2|2-2-2-2||

Verse 2  x4                   (tacet 4th time) (4th time)
|----------|----------|-------|--------||--------|-------||
|*---------|----------|-------|-------*||--------|-------||
|*-2-2-2-2-|0-2-0-2-2-|-------|-------*||--------|-------||
|----------|----------|-3-3-3-|-2-2-2--||-2-2-2-2|2-2-2-2||

Chorus x3                       (after 3rd time)
|-------|-------|------|------||---------||
|*------|-------|------|-----*||---------||
|*------|--2--2-|------|-----*||---------||
|-------|-------|-3--3-|-5--5-||-5-5-5-5-||

Post-Chorus x 3                                  (after 3rd time)
|----------|-----------|-----------|-----------||--------|-------||
|----------|-----------|-----------|----------*||--------|-------||
|-5-5-5--5-|-----------|-----------|----------*||--------|-------||
|----------|-5-5-5—5---|-7--7-7--7-|-3--3-3--3-||-2-2-2-2|2-2-2-2||

Chorus x3                       (after 3rd time)
|-------|-------|------|------||---------||
|*------|-------|------|-----*||---------||
|*------|--2--2-|------|-----*||---------||
|-------|-------|-3--3-|-5--5-||-5-5-5-5-||

Post-Chorus x 3
|----------|----------|-----------|-----------||
|----------|----------|-----------|----------*||
|-5-5-5--5-|----------|-----------|----------*||
|----------|-5-5-5—5--|-7--7-7--7-|-3--3-3--3-||


End on

|-----||
|-----||
|-5---||
|-----||
comments
print report bad tab
I want to post or [tab]
guest
You may want to rate the tab now too:
select rating
Please do not post tabs as comments. Select "correction" instead!