Oops, an error
Loading. Please wait.

Sex And Candy Tab

version 2
version 2

Whole song

Interactive

40,189 views 3 this week
1 commentread comment
1 2 3 4 5
accurate
x 6
add to favorites
launch autoscroll
font size
0
reset
how to read this tab
guitar tuner
Tab Pro tools
  • play this tab
  • loop segment
  • change instrument
  • show fretboard
  • metronome
×
Best way to learn
"Sex And Candy"
Autoscroll
slow
fast
+/-
esc
set tempo
stop
Contributor
Difficulty
intermediate
#----------------------------------PLEASE NOTE---------------------------------#
#This file is the author's own work and represents their interpretation of the #
#song. You may only use this file for private study, scholarship, or research. #
#------------------------------------------------------------------------------##

                                  SEX AND CANDY
                         As recorded by Marcy Playground

Words and Music by John Wozniak


          B5                   G5                   F#5                  F#
      x 2 4 4 x x          3 5 5 x x x          2 4 4 x x x          2 4 4 3 x x

          D5                    A                    D               F#(type 2)
      x x 0 2 x x          x 0 2 2 2 x          x x 0 2 3 2          2 4 4 3 2 2

Gtr I (E A D G B E) - 'Untitled'
Gtr II (E A D G B E) - 'Untitled'
Gtr III (E A D G B E) - 'Not Played Used to Satisfy Score Checker'

   Verse
    Q=80
    B5                       G5      F#5
   4/4
    Gtrs I, II
    E E E. S S S E S S S S   Q  E. S Q  S S S S
    | | |  | | | | | | | |   |  |  | |  | | | |
    / / /  / / / / / / / /   /  /  / /  / / / /

    Gtr III
    W                        W
||-------------------------|--------------------|
||o------------------------|--------------------|
||-------------------------|--------------------|
||-------------------------|--------------------|
||o------------------------|--------------------|
||-------------------------|--------------------|


  B5                       G5      F#5
 4/4
  E E E. S S S E S S S S   Q  E. S Q  S S S S
  | | |  | | | | | | | |   |  |  | |  | | | |
  / / /  / / / / / / / /   /  /  / /  / / / /

  W                        W
|------------------------|--------------------|
|------------------------|--------------------|
|------------------------|--------------------|
|------------------------|--------------------|
|------------------------|--------------------|
|------------------------|--------------------|


  B5                       G5      F#5
 4/4
  E E E. S S S E S S S S   Q  E. S Q  S S S S
  | | |  | | | | | | | |   |  |  | |  | | | |
  / / /  / / / / / / / /   /  /  / /  / / / /

  W                        W
|------------------------|--------------------|
|------------------------|--------------------|
|------------------------|--------------------|
|------------------------|--------------------|
|------------------------|--------------------|
|------------------------|--------------------|


  B5                       G5         F#
 4/4                      2/4        4/4
                                              Gtr II
  E E E. S S S E S S S S   E E E. S   E E E E E E Q
  | | |  | | | | | | | |   | | |  |   | | | | | | |
  / / /  / / / / / / / /   / / /  /   / / / / / / /

                                              Gtr I
  W                        W          H       E E E S S
|------------------------|----------|-------------------|
|------------------------|----------|-------------------|
|------------------------|----------|---------3-3-3-3---|
|------------------------|----------|---------4-4-4-4-0-|
|------------------------|----------|---------4-4-4-4---|
|------------------------|----------|---------2-2-2-2---|


 Chorus
                $
                B5         G5
 2/4           4/4
  H             Q  S S S S Q  E S S
                |  | | | | |  | | |
                /  / / / / /  / x x

  S S E E S S   Q  E   S S Q  E S S
|-------------|---------------------|
|-------------|---------------------|
|-2h4-2-------|-4--4----------------|
|-0---0-4-2p0-|-4--4-------5--5-x-x-|
|-------------|-2--2---0---5--5-x-x-|
|-------------|----------3-3--3-x-x-|


  A                        B5         G5
  Q  E E   H               Q  S S S S Q  E S S
  |  |                     |  | | | | |  | | |
  /  /                     /  / / / / /  / x x

  Q  E S S S S E S S S S   Q  E   S S Q  E S S
|------------------------|---------------------|
|------------------------|---------------------|
|-2--2-----2h4-2---------|-4--4----------------|
|-2--2-----0---0-4-4-2p0-|-4--4-------5--5-x-x-|
|-0--0-0-0---------------|-2--2---0---5--5-x-x-|
|------------------------|----------3-3--3-x-x-|


  A                        B5         G5
  Q  E E   H               Q  S S S S Q  E S S
  |  |                     |  | | | | |  | | |
  /  /                     /  / / / / /  / x x

  Q  E S S S S E S S S S   Q  E   S S Q  E S S
|------------------------|---------------------|
|------------------------|---------------------|
|-2--2-----2h4-2---------|-4--4----------------|
|-2--2-----0---0-4-4-2p0-|-4--4-------5--5-x-x-|
|-0--0-0-0---------------|-2--2---0---5--5-x-x-|
|------------------------|----------3-3--3-x-x-|


                                                                 To Coda
  A             D        A          B5       G5         D        A
  Gtrs I, II
  Q  E E H      Q  E S S Q  E S S   Q  E S S Q  E S S   Q  E S S Q  E S S
  |  |          |  | | | |  | | |   |  | | | |  | | |   |  | | | |  | | |
  /  /          /  / x x /  / x x   /  / x x /  / x x   /  / x x /  / x x

  W             W                   W                   W
|-------------|-------------------|-------------------|-------------------|
|-------------|-------------------|-------------------|-------------------|
|-------------|-------------------|-------------------|-------------------|
|-------------|-------------------|-------------------|-------------------|
|-------------|-------------------|-------------------|-------------------|
|-------------|-------------------|-------------------|-------------------|


 Chorus Ending 1
  1.
  B5       G5         F#5
  Q  E S S Q  E S S   E E E E E E S S S S
  |  | | | |  | | |   | | | | | | | | | |
  /  / x x /  / x x   / / / / / / / / / /

  W                   W
|-------------------|----------------------||
|-------------------|---------------------o||
|-------------------|----------------------||
|-------------------|----------------------||
|-------------------|---------------------o||
|-------------------|----------------------||


 Chorus Ending 2
  2.
  B5       G5         D        A
                      Gtr I
  Q  E S S Q  E S S   Q  E S S Q  E S S
  |  | | | |  | | |   |  | | | |  | | |
  /  / x x /  / x x   /  / x x /  / x x

  W                   W
|-------------------|-------------------|
|-------------------|-------------------|
|-------------------|-------------------|
|-------------------|-------------------|
|-------------------|-------------------|
|-------------------|-------------------|


                                                D.S. al Coda
  B5          G5            D         A
                                               2/4
  E E S S S S E E S S S S   W                   W
  | | | | | | | | | | | |
  / / / / / x / / / / / x

                            Gtr I
  W                         E E E E E E E S S   S S E S S S S
|-------------------------|-------------------|---------------||
|-------------------------|-------------------|---------------||
|-------------------------|-3-3-3-3-3-3-3-----|-2h4-2---------||
|-------------------------|-4-4-4-4-4-4-4-----|-0---0-4-4-2p0-||
|-------------------------|-4-4-4-4-4-4-4-0-0-|---------------||
|-------------------------|-2-2-2-2-2-2-2-----|---------------||


 Coda
  &
             D        A                     D
 4/4
             Gtr I
  W          Q  E S S Q  E S S   W          W
             |  | | | |  | | |              |
             /  / / / /  / / /              /

  W          W                   W          W
|----------|-------------------|----------|------*|
|----------|-------------------|----------|------*|
|----------|-------------------|----------|------*|
|----------|-------------------|----------|------*|
|----------|-------------------|----------|------*|
|----------|-------------------|----------|------*|


Duration Legend
---------------
W - whole; H - half; Q - quarter; E - 8th; S - 16th; T - 32nd; X - 64th; a - acciaccatura
+ - note tied to previous; . - note dotted; .. - note double dotted
Uncapitalized letters represent notes that are staccato (1/2 duration)
Irregular groupings are notated above the duration line
Duration letters will always appear directly above the note/fret number it represents the
duration for.  Duration letters with no fret number below them represent rests.  Multi-
bar rests are notated in the form Wxn, where n is the number of bars to rest for.  Low
melody durations appear below the staff

Tablature Legend
----------------
 h   - hammer-on
 p   - pull-off
 b   - bend
 pb  - pre-bend
 r   - bend release (if no number after the r, then release immediately)
 /\  - slide into or out of (from/to "nowhere")
 s   - legato slide
 S   - shift slide
  - natural harmonic
[n]  - artificial harmonic
n(n) - tapped harmonic
 ~   - vibrato
 tr  - trill
 T   - tap
 TP  - trem. picking
 PM  - palm muting
\n/  - tremolo bar dip; n = amount to dip
 \n  - tremolo bar down
 n/  - tremolo bar up
/n\  - tremolo bar inverted dip
 =   - hold bend; also acts as connecting device for hammers/pulls
 <>  - volume swell (louder/softer)
 x   - on rhythm slash represents muted slash
 o   - on rhythm slash represents single note slash

Misc Legend
-----------
 |  - bar
||  - double bar
||o - repeat start
o|| - repeat end
*|  - double bar (ending)
 :  - bar (freetime)
 $  - Segno
 &  - Coda
Tempo markers -  = BPM(8/16=s8/s16), where s8 = swing 8ths, s16 = swing 16ths


comments
print report bad tab
1 comment total.
-1 reply
californiacane wrote on May 25 2010, 05:55 pm

Where the H-E-Double Hockey Sticks are the verse chords?!?!?

I want to post or [tab]
guest
You may want to rate the tab now too:
select rating
Please do not post tabs as comments. Select "correction" instead!