Oops, an error
Loading. Please wait.

Wave Motion Gun Bass Tab

version 1
version 1

Whole song

Interactive

583 views 1 this week
1 commentread comment
1 2 3 4 5
2 more votes to show rating
add to favorites
launch autoscroll
font size
0
reset
guitar tuner
Autoscroll
slow
fast
+/-
esc
set tempo
stop
Help us to improve Ultimate-Guitar.com Take our survey!
×
Author
Difficulty
intermediate
Marcy Playground: Wave Motion Gun
Album: Shapeshifter
Tabbed By Hayden
Standard Tuning -

Verse:
G|----------------------------| |-------------|
D|---6-9---6-9---4-7------1-4-| |---6h9-9-----|
A|-7-----6-----4------2-2-----| |-7-------7-7-|
E|----------------------------| |-------------|

Chorus 1:
G|-----------------------------| |-----------------|
D|---4-6-----------------------| |-----------------|
A|-4-------4-6-----5-7-----2---| |-----------------|
E|-------4-----4-5-----0-0---0-| |-7-7-7-7-7-7-7-7-|

Chorus 2:
G|---------------------------------| |-----------------|
D|---------------------------------| |-----------------|
A|-4-4-4-4-------------------------| |-----------------|
E|---------4-4-4-4-5-5-5-5-0-0-0-0-| |-7-7-7-7-7-7-7-7-|

Bridge: Variant one                | Variant two
G|---------------------------------|---------6h7-9-7p6---------------|
D|---------------------------------|-7-7-7-7-----------2-2-2-2-2h4-2-|
A|-0-0-0-0-0h2-0-0-----------------|---------------------------------|
E|-----------------0-0-0-0-0h2-0-0-|---------------------------------|

Bridge closure:
G|--------------------------|
D|------------------7-6-----|
A|----------9---6-9-----6-9-|
E|-5>-0>-7>---7-------------|

Chorus 3:
G|-----------------------------|
D|-----------------------------|
A|-4-4-0-----------------------|
E|-------4-4-4-4-5-5-4-0-0-0-0-|

Key:
h = hammer on
p = pull off
> = x 8

Order:
Verse x 5, followed by the little add on.
Chorus[1] x 3, with the added part following x 1.
Verse x 5, then the add on.
Chorus[2] x 4, + build up to bridge
Bridge x 3  [i suggest V1 x1 then V2 x1 then V1 x1] though it's not crucial.
Bridge closure x1
Verse x 7 + lead up to chorus [ A7 x 7 ]
Chorus[3] x 7
Chorus[2] x 4  + lead up to bridge.
Bridge till song finishes.. It's almost inaudible, so I think just go with variant one 
and try your own tricks if in doubt.

This is a blend of a live version and the album version, I needed to
consult the live one because the bass was less smothered, in all..
they are very much the same minus a rare varying note or two, so
whatever you'd like to jam along to, this should play out perfectly.
Variant 2 in the bridge is just what i thought i heard on the live version,
so if it doesn't add up, just stick to V1 for the whole thing.

Enjoy :)
Suggest correction
Give kudos to tab author, rate the tab!
1 2 3 4 5
comments
print report bad tab
1 comment total.
0 reply
Porkchop8908 10 May 22, 2012 05:13 AM

Thanks for the tab buddy, been looking for Wave Motion for awhile!

guest
You may want to rate the tab now too:
select rating
Wanna post a correction for this tab? Suggest correction