Oops, an error
Loading. Please wait.

Alfileres Tab

by Marea
224 views 1 this week
no commentswrite comment
1 2 3 4 5
3 more votes to show rating
add to favorites
×
Save as Personal and add changes to this tab that will be seen only by you. Learn more ›
×
You can save this tab as Personal to edit and correct it or add notes. All changes will be seen only by you. Learn more »
save as personal
new!
launch autoscroll
font size
0
reset
how to read this tab
guitar tuner
Autoscroll
slow
fast
+/-
esc
set tempo
stop
Tab By: KoYi

INTRO

* = MOGOYON DE VECES
~ = DEJAR SONAR LA NOTA UN RATO

|------------------|
|------------------|
|------------------|
|-7*---3-3--5-5-5--|
|-7*---3-3--5-5-5--|
|-5*---1-1--3-3-3--|

|--------------|
|--------------|
|--------------|
|-7*---3~--5~--|
|-7*---3~--5~--|
|-5*---1~--3~--|

|--------------|
|--------------|
|------5~--7~--|
|-7*---5~--7~--|
|-7*---3~--5~--|
|-5*-----------|

|-----------------------|
|-----------------------|
|-----------------------|
|-7--7-7-7--3-3--5-5-5--|
|-7--7-7-7--3-3--5-5-5--|
|-5--5-5-5--1-1--3-3-3--|


VERSO

Alfileres tengo panza arriba en la mirada
|--------------------------------------|
|--------------------------------------|
|--------------------------------------|
|-BAJO--------------------------7-7-7--|
|-------------------------------7-7-7--|
|-------------------------------5-5-5--|

para coger la sisa a las fachadas,
|---------------|
|---------------|
|---------------|
|-3~---5~---7*--|
|-3~---5~---7*--|
|-1~---3~---5*--|

que duelen como duele el granizo en la espalda,
|----------------------------|
|----------------------------|
|-5~---7~--------------------|
|-5~---7~---7*---3-3--5-5-5--|
|-3~---5~---7*---3-3--5-5-5--|
|-----------5*---1-1--3-3-3--|

(repetir la operacion kon el resto del verso)


ESTRIBILLO

C              G
y no hay en la tierra
    A             F
un dolor que se acicale
     C                 G
reflejao en los ventanales
F
de mi casa, de mi casa,
C             G
puedo comer mierda
A                      F
y acostarme en los portales
        C                  G 
si a la noche tengo a alguien 
F
que me abraza, que me abraza,


PUENTE

Solo quiero que me quieran...
|------------|
|------------|
|------------|
|-7-7--5--7--|
|-7-7--5--7--|
|-5-5--3--5--|

|----------------|
|----------------|
|---9---7--------|  x8
|-7---7---9-7-9--| 
|----------------|
|----------------|

|---------------------------------|
|---------------------------------|
|---------------------------------|
|---9---7-9-7-9------9---7--------| x4
|-7---7------------7---7---9-7-9--|
|---------------------------------|


FINAL

|----------------|
|----------------|
|----------------|
|---9---7--------|
|-7---7---9-7-9--|
|----------------|


Os recomiendo ke vayais eskuxando la kancion a la par ke la tokais, os
resultará mas fácil de piyar.

Y creo ke yasta, si akaso tuvierais alguna duda sobre mi tablatura o no
estuvierais de akuerdo o kompletais los komplikados punteos del kolibrí
os agradecería ke me eskribiéseis: koyi_gothic@
              ?KoYi?
Suggest correction
Give kudos to tab author, rate the tab!
1 2 3 4 5
comments
print report bad tab
guest
Wanna post a correction for this tab? Suggest correction