Oops, an error
Loading. Please wait.

Barniz Tab

by Marea
126 views 1 this week
no commentswrite comment
1 2 3 4 5
3 more votes to show rating
add to favorites
launch autoscroll
font size
0
reset
how to read this tab
guitar tuner
×
Best way to learn
"Barniz"
Autoscroll
slow
fast
+/-
esc
set tempo
stop
BARNIZ
¨¨¨¨¨¨
Marea -> Revolcón

Tabulado por: Iñaki 'Hammet' Treviño y Emilio 'Furracacaster' Martín 

Intro:

e:-----------||----------|
B:-----------||----------|
G:-----5-3s5-||---0-3-5s3|
D:-----5-3s5-||---0-3-5s3|
A:-----------||----------|
E:-1-3-------||-1--------|
p.m...       x3


Solo 1:

   G           A             F                          C        G    A
e:--------------------------------------------------------------------------------------|
B:----)----)~~----)-----)~~-----------10----10-10---------------------------------------|
G:---/-\--/------/-\---/--------------10----10-10------------------------------10-12p10-|
D:-10----10----10----10------10/12-12----12-------12-10---------------10/12-12----------|
A:------------------------------------------------------13-13-13-10~~-------------------|
E:--------------------------------------------------------------------------------------|

        F                C                     D
e:---------------------------------------------10-10-10--10-10-10--|
B:------------------11~~----------10----10-10--10-10-10--10-10-10--|
G:---10-12p10-12p10---------------10----10-10----------------------|
D:12---------------------10/12-12----12----------------------------|
A:-----------------------------------------------------------------|
E:-----------------------------------------------------------------|


Riff 1: 'Sera por ti...'
e:-----------------------------|----------------------------|
B:-----------------------------|----------------------------|
G:-----------7-6h7---------5---|---7-6h7---------5-5---5-7--|
D:-5-5---5-7-7-7---3-3---3-5-5-|-7-7-7---3-3---3-5-5---5-7--|
A:-5-5---5-7-------3-3---3-3-5-|-7-------3-3---3-3-3---3-5--|
E:-3-3---3-5-------1-1---1---3-|-5-------1-1---1------------|


Riff 2: 'Me repica el corazon...'
e:----------------------3-----3-|-------------------------3----3-|
B:----------------------3-----3-|--------3-----3----------3----3-|
G:-5--------------------0-----0-|-2------2-----2----------0----0-|
D:-5----------------------------|-2------------------------------|
A:-3--33333333333333-2-----2----|-0-0000---3h4---0000--2-----2---|
E:-------------------3-----3----|----------------------3-----3---|
      p.m...........                 p.m...........  


Riff 3: 'Me pego a ti como el barniz...'
e:-------------------------|------------------------------|
B:--5-xxxxx-7--------------|-5-------7--------------------|
G:--5-xxxxx-7--------------|-5-------7--------------------|
D:--3-xxxxx-5----7-xxxxx-5-|-3-33333-5-555555555-7------5-|
A:---------------7-xxxxx-5-|---------------------7------5-|
E:---------------5-xxxxx-3-|---------------------555555-3-|
                               p.m.............  p.m..     

e:------------|
B:------------|
G:------------|
D:-5----------|
A: -\/\/\/\/--|(Con la palanca del puente)
E:------------|

Solo 2:

(Lleva la misma guitarra ritmica que el solo 1)
e:----------------------------------------------------------------------------------|
B:----------10-----10-10----10-10----10-10----10-10-------10-10----10-10------------|
G:----------10-----10-10----10-10----10-10----10-10-------10-10----10-10------------|
D:----10/12-----12-------12-------12-------12-------10/12-------12-------12-10------|
A:------------------------------------------------------------------------------13--|
E:----------------------------------------------------------------------------------|

e:------------------------------------------------------------------------------|
B:---------------)--------------------------------------------------------------|
G:--------------/-\-----------------------------------)-------------------------|
D:-12---------12-------------------------------------/-\------------------------|
A:----13-10~~-------13-10-13-10---------------------5---------------------------|
E:------------------------------13-10-13p10-13-10~~------8-6-6h8-6-3-6-6-6-3~~--|

Riff 1

Riff 2

Riff 3


Solo 3: 

e:-----------------------------------------------------------------------|
B:-------12----12-12----------12----12-12---------------------6-6-6------|
G:-------12----12-12----------12----12-12---------------------6-6-6------|
D:-12/14----14-------12/14-14----14-------10h11p10-8------6-8-------8~~--|
A:---------------------------------------------------11\8----------------|
E:-----------------------------------------------------------------------|
                                                         )
                                                        /
e:----------------------------------------------------15---15~~--|
B:-------------------------13-----------------13-----------------|
G:-------------------12-14----14-12-14~~--/14----14~~------------|
D:-8-6/8-10/13-13/15---------------------------------------------|
A:---------------------------------------------------------------|
E:---------------------------------------------------------------|

Despues viene una parte que me resulta imposible sacar y luego:

e:------------------------------------------------------------------------------|
B:-----12----12-12-------12----12-12-------------------------------------6---6--|
G:-----12----12-12-------12----12-12-9h10p9\7---------7------------------6---6--|
D:--14----14-------14-14----14----------------10p7-10---10p7-10-7~~--8-8---8----|
A:------------------------------------------------------------------------------|
E:------------------------------------------------------------------------------|

e:--------------------------------------------------|
B:----12----12--------------------------------------|
G:----12----12--------\14-14--14-14--\12-12--12-12--|
D:-14----14----14~~---------------------------------|
A:--------------------------------------------------|
E:--------------------------------------------------|


                                          


'Seras kabron murmura el sol...'

e:------------------------------0---0---0---0---------|
B:-------2---2--2h3-2---2-------1---1---1---1---3---3-|
G:-------2---2--2---2---2-----------------------2---2-|
D:------------------------------------------------0---|
A:---------0---0------0---0-3h4---3---3---3---3-------|
E:-0-3h4----------------------------------------------|


'Sere lo que no quise ser...'

e:--------------------------------------------------------|
B:--------------------------------------------------------|
G:-------2---2---2---2---2---2---5---5---5----------------|
D:-------2---2---2---2---2---2---5---5---5---5---5---5----|
A:-2-5-6-0---0---0---0---0---0-----3---3---3-5---5---5----|
E:-0-3-4---0---0---0-------0---0---------------3---3---3--|


            
            
            
e:-----------------------------------------|
B:-----------------------------------------|
G:-----------------------------------------|
D:-3---3---3---3---3---3---5---5---5----5--|
A:-3---3---3---3---3---3---5---5---5----5--|
E:---1---1---1---1---1---1---3---3---3--3--|


Riff 3


Final:

e:------------------------|
B:------------------------|
G:-----2-2-----------5-5--|
D:-5---2-2---3--3--3-5-5--|
A:-5---0-0---3--3--3-3-3--|
E:-3---------1--1--1------|
Suggest correction
Give kudos to tab author, rate the tab!
1 2 3 4 5
comments
print report bad tab
guest
You may want to rate the tab now too:
select rating
Wanna post a correction for this tab? Suggest correction